Song name
# A B C D E F G H I J K L M N O P Q R S T U V W X Y Z

Reverend Horton Heat - Its Martini Time tab

-------------------------------------------------------------------------------
			     It's Martin Time - Reverend Horton Heat
-------------------------------------------------------------------------------
Tabbed by: Al Sobrante
Email: al-sobrante@hotmail.it

Tuning:Normal Tuning

Intro (Very Fast, about 223 BMP)

e|-------7--6-6--------|-------5--4-4----------|-------7--6-6-7---9/14-------|
B|---5-9--------7------|---3-7--------5--0-----|---5-9-----------------------|
G|-6--------------6----|-4---------------------|-6---------------------------|
D|---------------------|-----------------------|-----------------------------|
A|---------------------|-----------------------|-----------------------------|
E|---------------------|-----------------------|-----------------------------|

e|-------5--4-4-7/12---|-------7--6-6--14-17-19|-18--18-18-------------------|
B|---3-7---------------|---5-9-----------------|-----------19----------------|
G|-4-------------------|-6---------------------|--------------18-------------|
D|---------------------|-----------------------|-----------------------------|
A|---------------------|-----------------------|-----------------------------|
E|---------------------|-----------------------|-----------------------------|

e|-----25\------------|
B|--------------------|
G|--------------------|
D|--------------------|
A|--------------------|
E|--------------------|
Tap to rate this tab
# A B C D E F G H I J K L M N O P Q R S T U V W X Y Z