Song name
# A B C D E F G H I J K L M N O P Q R S T U V W X Y Z

Revis - From That Point On tab

-------------------------------------------------------------------------------
			     From that point on - Revis
-------------------------------------------------------------------------------
Tabbed by: Justsomeguy
Email:

Tuning: Drop D Tuning

Intro/Verse

e|-------------9----------12-----------14---------9------------12------------|
B|----9----------------------------------------------------------------------|
G|----------7----------------------13----------7-----------------------------|
D|--9----\5-----------11-------\14----------\5-------------11----------------|
A|7---------------\12----------------------------------\12-------------------|
E|---------------------------------------------------------------------------|

Chorus: G/E

Pretty simple.

| /  slide up
| \  slide down
| h  hammer-on
| p  pull-off
| ~  vibrato
| +  harmonic
| x  Mute note
===============================================================================
Tap to rate this tab
 
# A B C D E F G H I J K L M N O P Q R S T U V W X Y Z