Song name
# A B C D E F G H I J K L M N O P Q R S T U V W X Y Z

Revis - From That Point On tab

-------------------------------------------------------------------------------
                             From that point on - Revis
-------------------------------------------------------------------------------
Tabbed by: dubya TF
Email: impyjeff2004@yahoo.com
Tuning: Drop D Tuning

The first version was good but still missing something.

Intro/Verse
e|-----------------9----------12------------14----------9------------12------------12--|
B|------9------------------------------------------------------------------------------|
G|--------------7------------------------13-----------7---------------------------13---|
D|---9-----\5------------11-------\14----------\5-------------11--------\14------------|
A|-7------------------\12-----------------------------------\12------------------------|
D|-------------------------------------------------------------------------------------|

Chorus
e|------------------------------------------------------------------------|
B|------------------------------------------------------------------------|
G|------------------------------------------------------------------------|
D|---2--5--7--------------------------------------------------------------|
A|---2--5--7--------------------------------------------------------------|
D|---2--5--7--------------------------------------------------------------|

Standard tuning you can just use E, G and A chords or in drop D tuning use a combination 
of barre and power chord shapes. Whatever works for the sound you like.


| /  slide up
| \  slide down
| h  hammer-on
| p  pull-off
| ~  vibrato
| +  harmonic
| x  Mute note
===============================================================================
Tap to rate this tab
# A B C D E F G H I J K L M N O P Q R S T U V W X Y Z