Song name
# A B C D E F G H I J K L M N O P Q R S T U V W X Y Z

Revis - Save Our Souls tab

Revis- Save Our Souls
Dropped D Tuning
Tabbed by: DubyaTF
Email: impyjeff2004@yahoo.com
Its not perfect but close enough to rock out!
Intro and verse
e|-----------------------------------------------------------------------------------------|
B|-----------------------------------------------------------------------------------------|
G|-----------------------------------------------------------------------------------------|
D|---12--8--10--5----12--8--10--5--0--5--7------12--8--10--5--0--5--7--5--0--3--0--3--5----|
A|---12--8--10--5----12--8--10--5--0--5--7------12--8--10--5--0--5--7--5--0--3--0--3--5----|
D|---12--8--10--5----12--8--10--5--0--5--7------12--8--10--5--0--5--7--5--0--3--0--3--5----|
       [                             clean-ish                            ]

e|-----------------------------------------------------------------------------------------|
B|-----------------------------------------------------------------------------------------|
G|-----------------------------------------------------------------------------------------|
D|---12--8--10--5----12--8--10--5--0--5--7------12--8--10--5--0--5--7--5--0--3--0--3--5----|
A|---12--8--10--5----12--8--10--5--0--5--7------12--8--10--5--0--5--7--5--0--3--0--3--5----|
D|---12--8--10--5----12--8--10--5--0--5--7------12--8--10--5--0--5--7--5--0--3--0--3--5----|
              [                 Hit the overdrive                       ]

Chorus
e|----------------------------------------------------|
B|----------------------------------------------------|
G|----------------------------------------------------|
D|----1--5--8------1--5--8--------1--5--8--10---------|
A|----1--5--8------1--5--8--------1--5--8--10---------|
D|----1--5--8------1--5--8--------1--5--8--10---------|

Don't forget to put some palm muting in on the intro and verse parts. Play the verse 
part without palm muting during the solo. This is just the chord layout; just add your 
strumming pattern to match the original and rock out!
Tap to rate this tab
# A B C D E F G H I J K L M N O P Q R S T U V W X Y Z