Song name
# A B C D E F G H I J K L M N O P Q R S T U V W X Y Z

Revis - Everything After tab

------------------------------------------------------------------------------
                Revis- Everything After
-------------------------------------------------------------------------------
Tabbed by:dubya TF
E-mail:impyjeff2004@yahoo.com
Tuning:Dropped D
Not perfect but pretty damn close.
Intro
e|----------------------------------------------------|
B|----------------------------------------------------|
G|----------------------------------------------------|
D|----5---0---10----2p0--2p0--2p0------5---0---10-----|
A|----5---0---10----2p0--2p0--2p0------5---0---10-----|
E|----5---0---10----2p0--2p0--2p0------5---0---10-----|

Verse
e|---------------------------------------------------------------------------------------|
B|---------------------------14---17---16---12b------------------------------------------|
G|--------------------------------------------------------------------13--16--15--11-----|
D|---16p14h16--16p14h16---------------------------14h16--14h16--14h16--------------------| X 2
A|---------------------------------------------------------------------------------------|
E|---------------------------------------------------------------------------------------|

Chorus
e|----------------------------------------------------|
B|----------------------------------------------------|
G|----------------------------------------------------|
D|----5---0---10----2p0--2p0--2p0------5---0---10-----| X 2
A|----5---0---10----2p0--2p0--2p0------5---0---10-----|
E|----5---0---10----2p0--2p0--2p0------5---0---10-----|

Bridge
e|------------------------------------------------------------------|    |----------|
B|------------------------------------------------------------------|    |----------|
G|------------------------------------------------------------------|    |----------|
D|---2p0--2p0--2p0---2p0---xxxxxx----2p0--2p0--2p0--2p0--- xxxxxx --|     |----5/7--|
A|---2p0--2p0--2p0---2p0---xxxxxx----2p0--2p0--2p0-- 2p0---xxxxxx --|     |----5/7--|
E|---2p0--2p0--2p0---2p0---xxxxxx----2p0--2p0--2p0---2p0---xxxxxx --|     |----5/7--|
                                                                        Bridge Ending

This is just the chords for the song. Figure out the strumming/picking and rhythm to go 
along. The end of the song is the same basic pattern as the chorus but hold out on each 
chord shape longer if that makes sense.
************************************

| /   slide up
| \   slide down
| h   hammer-on
| p   pull-off
| ~   vibrato
| +   harmonic
| x   Mute note
| b   Bend
| pb  Pre-bend
| br  Bend release
| pbr Pre-bend release
| brb Bend release bend

************************************
Tap to rate this tab
# A B C D E F G H I J K L M N O P Q R S T U V W X Y Z