Song name
# A B C D E F G H I J K L M N O P Q R S T U V W X Y Z

Revive - Cant Change Yesterday tab

Help us improve GuitareTab! Take a short survey!
Song: Can't Change Yesterday (INTRO and CHORUS)
Artist: Revive
Album: Chorus of the Saints
Year: 2009

This is all I could figure out.
Good luck with the rest!

INTRO:

Guitar 1 (Distortion):

e|------------------------------------  ---|
b|------------------------------------     |
g|------------------------------------     |
D|--4p0-0-5p0-0-7p0-0-9p0-0-11h12-12\-     |
A|------------------------------------     |
D|------------------------------------     |
                                           |
e|------------------------------------     |
b|------------------------------------     |
g|------------------------------------(4x)-|
D|--4p0-0-5p0-0-7p0-0-9p0-0-7h9-7-----     |
A|------------------------------------     |
D|------------------------------------  ---|


Guitar 2 (Distortion): Starts after Gtr. 1 does intro twice.

e|-----------------------------|
b|-----------------------------|
g|--------------------7-7--7-7-|(4x)
D|--4-4---5-5---7-7---7-7--7-7-|
A|--4-4---5-5---7-7---5-5--5-5-|
D|--4-4---5-5---7-7---0-0--0-0-|

CHORUS:

Guitars 1 & 2:

e|------------------------|
b|------------------------|
g|------------------------|(2x)
D|--5------7------9-------|
A|--5-(8x)-7-(8x)-9-(16x)-|
D|--5------7------9-------|

e|------------------------------|
b|------------------------------|
g|------------------------------|
D|--4------5------7------9------|
A|--4-(8x)-5-(8x)-7-(8x)-9-(8x)-|
D|--4------5------7------9------|

e|---------------------------------------|
b|---------------------------------------|
g|---------------------------------------|
D|--4------5------7------7---------------|
A|--4-(8x)-5-(8x)-7-(8x)-7---------------|(let ring out)
D|--4------5------7------7---------------|

That's it! Like I said, good luck with the rest!
Related for Cant Change Yesterday tab