Song name
# A B C D E F G H I J K L M N O P Q R S T U V W X Y Z

Revolting Cocks - Razors Edge tab

Artist: Revolting Cocks
Song Title: Razor's Edge
Album: Beers, Steers & Queers

|-------------------------------------------|
|/--                      |  | |-- O |   |  |
||   |   o |  | |  | \ /  |  | |     |\  |  |
| \  | /   |\ | |\ |  V   |--| |-  | | \ |  |
|  | |<  | | \| | \|  |   |  | |   | |  \|  |
|--/ | \ | |  | |  |  |   |  | |-- | |   |  |
|-------------------------------------------|

main riff(intro/outro):
E|---------------------------------------------------------------|
B|---------------------------------------------------------------|
G|5-5-5-5-5-5-5-5-5-5-5-5-5-5-5-5-4-4-4-4-4-4-4-4-4-4-4-4-4-4-4-4|
D|5-5-5-5-5-5-5-5-5-5-5-5-5-5-5-5-4-4-4-4-4-4-4-4-4-4-4-4-4-4-4-4|
A|3-3-3-3-3-3-3-3-3-3-3-3-3-3-3-3-2-2-2-2-2-2-2-2-2-2-2-2-2-2-2-2|
E|---------------------------------------------------------------|

second riff(played after the 5th time and somewhere later in the song):
E|---------------------------------------------------------------|
B|---------------------------------------------------------------|
G|4--4--4-4--4-----4--4--4-4--4-----4--4--4-4--4-----4--4-8-8-8-8|
D|4--4--4-4--4-----4--4--4-4--4-----4--4--4-4--4-----4--4-8-8-8-8|
A|2--2--2-2--2-----2--2--2-2--2-----2--2--2-2--2-----2--2-6-6-6-6|
E|---------------------------------------------------------------|

refrain:
E|---------------------------------------------------------------|
B|---------------------------------------------------------------|
G|5-5-5-5-5-5-5-5-6-6-6-6-6-6-6-6-5-5-5-5-5-5-5-5-6-6-6-6-6-6-6-6|
D|5-5-5-5-5-5-5-5-6-6-6-6-6-6-6-6-5-5-5-5-5-5-5-5-6-6-6-6-6-6-6-6|
A|3-3-3-3-3-3-3-3-4-4-4-4-4-4-4-4-2-2-2-2-2-2-2-2-4-4-4-4-4-4-4-4|
E|---------------------------------------------------------------|
Tap to rate this tab
 
# A B C D E F G H I J K L M N O P Q R S T U V W X Y Z