Song name
# A B C D E F G H I J K L M N O P Q R S T U V W X Y Z

Revolution Mother - Above The Crawl tab

Dropped D            DADGBE

Intro
Guitar 1
e---------------------------------|
b---------------------------------|
g---------------------------------|
d---------------------------------|
a-----5-----5-----5-----5---------|
d-0-0---0-0---0-0---0-0---0-0-6-5-|

Guitar 2

e-----1-----1-----1-----1-----3b------1-----1-----1-----1--------|
b-3-3---3-3---3-3---3-3---3-3-----3-3---3-3---3-3---3-3---3-3-1--|v
g----------------------------------------------------------------|
d----------------------------------------------------------------|
a----------------------------------------------------------------|
d----------------------------------------------------------------|

Verse

Guitar 1 & 2

e------------------------------------|
b------------------------------------|
g------------------------------------|
d------------------------------------|
a-0-0-5-0-0-5-0-0-5-0-0-5-0-0--------|
d-0-0---0-0---0-0---0-0---0-0-6-5----|

Chorus

Guitar 1 & 2

e--------------------------|
b--------------------------|
g--------------------------|
d-0-0-0--------------------|
a-0-0-0-3h5/8-0-0-0-10p8/5-|
d-0-0-0-------0-0-0--------|

After chorus

e--------------------------|
b--------------------------|
g--------------------------|
d-3-3-3-3-3-3-3-3-3-3-3----|
a-3-3-3-3-3-3-3-3-3-3-3----|
d-3-3-3-3-3-3-3-3-3-3-3-6--|v


solo
    pm...................
e-3-3-3-3-3-3-3-3-3-3-3-3-3--|b
b----------------------------|
g----------------------------|
d----------------------------|
a----------------------------|
d----------------------------|

do that a couple i dont kow the last part of the solo bit when i figure it out ill put it on
Tap to rate this tab
# A B C D E F G H I J K L M N O P Q R S T U V W X Y Z