Revolution Mother - Hole In The Sky tab

 intro gt.1,2
e-------------------------------------------------------|
b-------------------------------------------------------|
g-------------------------------------------------------|
d-------------------------------------------------------|x2
a-2-0-2-0-2-0-2-0-2-0-2-5-7-2-0-2-0-2-0-2-0-2-0-2-7-5---|
d-2-0-2-0-2-0-2-0-2-0-2-5-7-2-0-2-0-2-0-2-0-2-0-2-7-5---|

 gt.1
e------------------------------------------------------------------|
b------------------------------------------------------------------|
g------------------------------------------------------------------|
d---7-5-------------7-5-------------7-5-------------7-5------------|
a-2-----7-5-------2-----7-5-------2-----7-5-------2-----7-5--------|
d-2---------7-5~--2---------7-5~--2---------7-5~--2---------7-5~---|

 gt.2
e------------------------------------------------------------------|
b------------------------------------------------------------------|
g---9-7-------------9-7-------------9-7-------------9-7------------|
d-------9-7-------------9-7-------------9-7-------------9-7--------|
a-2---------9-7~--2---------9-7~--2---------9-7~--2---------9-7~---|
d-2---------------2---------------2---------------2----------------|

 verse gt.1
e-------------------------------------------------------|
b-------------------------------------------------------|
g-------------------------------------------------------|
d-------------------------------------------------------|x2
a-2-0-2-0-2-0-2-0-2-0-2-5-7-2-0-2-0-2-0-2-0-2-0-2-7-5---|
d-2-0-2-0-2-0-2-0-2-0-2-5-7-2-0-2-0-2-0-2-0-2-0-2-7-5---|

 verse gt.2
e-------------------------------------------------------|
b-------------------------------------------------------|
g-9-9-9-/9-9-9-/9-9-9-----9-9-9-/9-9-9-/9-9-9-----------|
d-x-x-x-/x-x-x-/x-x-x-----x-x-x-/x-x-x-/x-x-x-----------|x2
a-7-7-7-/7-7-7-/7-7-7-5-7-7-7-7-/7-7-7-/7-7-7-7-5-------|
d---------------------5-7---------------------7-5-------|

 gt.1
e------------------------------------------------------------------|
b------------------------------------------------------------------|
g------------------------------------------------------------------|
d---7-5-------------7-5-------------7-5-------------7-5------------|
a-2-----7-5-------2-----7-5-------2-----7-5-------2-----7-5--------|
d-2---------7-5~--2---------7-5~--2---------7-5~--2---------7-5~---|

 gt.2
e------------------------------------------------------------------|
b------------------------------------------------------------------|
g---9-7-------------9-7-------------9-7-------------9-7------------|
d-------9-7-------------9-7-------------9-7-------------9-7--------|
a-2---------9-7~--2---------9-7~--2---------9-7~--2---------9-7~---|
d-2---------------2---------------2---------------2----------------|

 verse gt.1
e-------------------------------------------------------|
b-------------------------------------------------------|
g-------------------------------------------------------|
d-------------------------------------------------------|x2
a-2-0-2-0-2-0-2-0-2-0-2-5-7-2-0-2-0-2-0-2-0-2-0-2-7-5---|
d-2-0-2-0-2-0-2-0-2-0-2-5-7-2-0-2-0-2-0-2-0-2-0-2-7-5---|

 verse gt.2
e-------------------------------------------------------|
b-------------------------------------------------------|
g-9-9-9-/9-9-9-/9-9-9-----9-9-9-/9-9-9-/9-9-9-----------|
d-x-x-x-/x-x-x-/x-x-x-----x-x-x-/x-x-x-/x-x-x-----------|x2
a-7-7-7-/7-7-7-/7-7-7-5-7-7-7-7-/7-7-7-/7-7-7-7-5-------|
d---------------------5-7---------------------7-5-------|

 chorus???
e-------------------------------------------------------|
b-------------------------------------------------------|
g-5-5-5-5-5-5-5-5---------------------------------------|
d-x-x-x-x-x-x-x-x-etc.--5-------------------------------|
a-3-3-3-3-3-3-3-3-------5-------------------------------|
d-----------------------5-------------------------------|

 intro gt.1,2
e-------------------------------------------------------|
b-------------------------------------------------------|
g-------------------------------------------------------|
d-------------------------------------------------------|x2
a-2-0-2-0-2-0-2-0-2-0-2-5-7-2-0-2-0-2-0-2-0-2-0-2-7-5---|
d-2-0-2-0-2-0-2-0-2-0-2-5-7-2-0-2-0-2-0-2-0-2-0-2-7-5---|

 verse gt.1
e-------------------------------------------------------|
b-------------------------------------------------------|
g-------------------------------------------------------|
d-------------------------------------------------------|x2
a-2-0-2-0-2-0-2-0-2-0-2-5-7-2-0-2-0-2-0-2-0-2-0-2-7-5---|
d-2-0-2-0-2-0-2-0-2-0-2-5-7-2-0-2-0-2-0-2-0-2-0-2-7-5---|

 verse gt.2
e-------------------------------------------------------|
b-------------------------------------------------------|
g-9-9-9-/9-9-9-/9-9-9-----9-9-9-/9-9-9-/9-9-9-----------|
d-x-x-x-/x-x-x-/x-x-x-----x-x-x-/x-x-x-/x-x-x-----------|x2
a-7-7-7-/7-7-7-/7-7-7-5-7-7-7-7-/7-7-7-/7-7-7-7-5-------|
d---------------------5-7---------------------7-5-------|

 chorus???
e-------------------------------------------------------|
b-------------------------------------------------------|
g-5-5-5-5-5-5-5-5---------------------------------------|
d-x-x-x-x-x-x-x-x-etc.--5-------------------------------|
a-3-3-3-3-3-3-3-3-------5-------------------------------|
d-----------------------5-------------------------------|

 solo(with wha/)
e--------------------------------------------------------------|
b--------------------------------------------------------------|
g-15?-----------(x2)-------------------------------------------|
d-----17?-14etc------16?-15?-13?-10?-7-9~-7-9~-7-9-7-12-(x2)---|
a--------------------------------------------------------------|
d--------------------------------------------------------------|

 rythm solo
e-------------------------------------------------------|
b-------------------------------------------------------|
g-------------------------------------------------------|
d-------------------------------------------------------|x2
a-2-0-2-0-2-0-2-0-2-0-2-5-7-2-0-2-0-2-0-2-0-2-0-2-7-5---|
d-2-0-2-0-2-0-2-0-2-0-2-5-7-2-0-2-0-2-0-2-0-2-0-2-7-5---|

 verse gt.1
e-------------------------------------------------------|
b-------------------------------------------------------|
g-------------------------------------------------------|
d-------------------------------------------------------|x2
a-2-0-2-0-2-0-2-0-2-0-2-5-7-2-0-2-0-2-0-2-0-2-0-2-7-5---|
d-2-0-2-0-2-0-2-0-2-0-2-5-7-2-0-2-0-2-0-2-0-2-0-2-7-5---|

 verse gt.2
e-------------------------------------------------------|
b-------------------------------------------------------|
g-9-9-9-/9-9-9-/9-9-9-----9-9-9-/9-9-9-/9-9-9-----------|
d-x-x-x-/x-x-x-/x-x-x-----x-x-x-/x-x-x-/x-x-x-----------|x2
a-7-7-7-/7-7-7-/7-7-7-5-7-7-7-7-/7-7-7-/7-7-7-7-5-------|
d---------------------5-7---------------------7-5-------|

 gt.1
e------------------------------------------------------------------|
b------------------------------------------------------------------|
g------------------------------------------------------------------|
d---7-5-------------7-5-------------7-5-------------7-5------------|
a-2-----7-5-------2-----7-5-------2-----7-5-------2-----7-5--------|
d-2---------7-5~--2---------7-5~--2---------7-5~--2---------7-5~---|

 gt.2
e------------------------------------------------------------------|
b------------------------------------------------------------------|
g---9-7-------------9-7-------------9-7-------------9-7------------|
d-------9-7-------------9-7-------------9-7-------------9-7--------|
a-2---------9-7~--2---------9-7~--2---------9-7~--2---------9-7~---|
d-2---------------2---------------2---------------2----------------|

 verse gt.1
e-------------------------------------------------------|
b-------------------------------------------------------|
g-------------------------------------------------------|
d-------------------------------------------------------|x2
a-2-0-2-0-2-0-2-0-2-0-2-5-7-2-0-2-0-2-0-2-0-2-0-2-7-5---|
d-2-0-2-0-2-0-2-0-2-0-2-5-7-2-0-2-0-2-0-2-0-2-0-2-7-5---|

 verse gt.2
e-------------------------------------------------------|
b-------------------------------------------------------|
g-9-9-9-/9-9-9-/9-9-9-----9-9-9-/9-9-9-/9-9-9-----------|
d-x-x-x-/x-x-x-/x-x-x-----x-x-x-/x-x-x-/x-x-x-----------|x2
a-7-7-7-/7-7-7-/7-7-7-5-7-7-7-7-/7-7-7-/7-7-7-7-5-------|
d---------------------5-7---------------------7-5-------|
Tap to rate this tab
 
# A B C D E F G H I J K L M N O P Q R S T U V W X Y Z