Song name
# A B C D E F G H I J K L M N O P Q R S T U V W X Y Z

Revolution Mother - Second Thoughts tab

E--------------------|
B--------------------|
G-------------5------| x8
D-----------7-5------|
A-2-5-----5----------|
E-0-3-2--------------|

E--------------------|
B--------------------|
G--------------------| x4
D---5--3-------------|
A-2-5--3--3-2--------|
E-0-------3-2-0------|

E--------------------|
B--------------------|
G-------------5------| x4
D-----------7-5------|
A-2-5-----5----------|
E-0-3-2--------------|

E--------------------|
B--------------------|
G--------------------| x4
D---5--3-------------|
A-2-5--3--3-2--------|
E-0-------3-2-0------|

E--------------------|
B--------------------|
G--------------------| x8
D--------------------|
A-------0-2-3-5------|
E-0-3-2-0------------|

E--------------------|
B--------------------|
G-------------5------| x4
D-----------7-5------|
A-2-5-----5----------|
E-0-3-2--------------|

E--------------------|
B--------------------|
G--------------------| x4
D---5--3-------------|
A-2-5--3--3-2--------|
E-0-------3-2-0------|

E----------------------------|
B----------------------------|
G-------------5--------------| x4
D-----------7-5--------------|
A-2-5-----5-----2-5---3-2-0--|
E-0-3-2---------0-3-2-3-2-0--|

E--------------------|
B--------------------|
G--------------------| x4
D---5--3-------------|
A-2-5--3--3-2--------|
E-0-------3-2-0------|
Tap to rate this tab
 
# A B C D E F G H I J K L M N O P Q R S T U V W X Y Z