Guitaretab - guitar tabs
Song name
# A B C D E F G H I J K L M N O P Q R S T U V W X Y Z

Revolution Smile - Bonethrower tab

This is the full and correct version, I listen to the song on a daily basis so I konw this is right.

tuning: drop d and full step down
this song is also played with and octave pedal or something

intro
--------------------------------------|
--------------------------------------|
--------------------------------------|
--------------------------------------|
--------------------------------------|
-------3-0-3-4-3-0-3------------------|

heavy part
--------------------------------------|
--------------------------------------|
--------------------------------------|
----(3-0-3-4-3-0-3)-------------------|
-----3-0-3-4-3-0-3--------------------|
-----3-0-3-4-3-0-3--------------------|

the ( ) things mean, you dont have to play it, but it sounds better if you do.

verse
---------------------------------------|
---------------------------------------|
---------------------------------------|
----(22222222222222222)----------------|
-----22222222222222222-----------------|
-----22222222222222222-----------------|
[ Tab from: http://www.guitaretab.com/r/revolution-smile/47293.html ]
chorus
-------------------------------------------|
-------------------------------------------|
-------------------------------------------|
---1-1-1-1----4-4-4-4----6-6-6-6-6-6-6-6---|
---1-1-1-1----4-4-4-4----6-6-6-6-6-6-6-6---|
---1-1-1-1----4-4-4-4----6-6-6-6-6-6-6-6---|

bridge
-------------------------------------------|
-------------------------------------------|
-------------------------------------------|
-------------------------------------------|
--------3-0--3-0-3^-0----------------------|
--------3-0--3-0-3^-0----------------------|

solo
(this is in tune with the bridge)
-------------------------------------------|
-------------------------------------------|
-------------------------------------------|
----15-12--15-12-15^-12--------------------|
-------------------------------------------|
-------------------------------------------|

soft part
no distortion on this part
-------------------------------------------|
-------------------------------------------|
-------------------------------------------|
-------------------------------------------|
----1-1-1-1---4-4-4-4---6-6-6-6-6-6-6-6----|


song order:

intro (x4)
heavy part (x4)
verse (x2)
heavy part (x2)
verse (x2)
chorus (x2)
heavy part (x2)
verse (x2)
heavy part (x2)
verse (x2)
chorus (x2)
bridge (x4)
solo (x2)
soft part (x2)
chorus (x4)

this is my first tab so if you can please rate it.
Related for Bonethrower tab
Advertisement will be closed in 10 seconds