Song name
# A B C D E F G H I J K L M N O P Q R S T U V W X Y Z

Revolution Smile - Future Of An End tab

This is my first tab and I just gave it my best

Tuned drop D (low to high): DADGBe

Distortion through out
Verse:
e----------------------------------------------------------------------|
B----------------------------------------------------------------------|
G----------------------------------------------------------------------|
D----------------------------------------------------------------------|
A----------------------------------------------------------------------|
D-0--0--0--0--12--12--12--12--2--2--2--2--2--11--11--11----------------|

e-----------------------------------------------------------------------|
B-----------------------------------------------------------------------|
G-----------------------------------------------------------------------|
D-----------------------------------------------------------------------|
A-----------------------------------------------------------------------|
D--11--4--4--4--4--4--4--4--4--4--4--4--4--4--4--4--4-------------------|   8x

Pre-chorus:
e----------------------------------------------------------------------|
B----------------------------------------------------------------------|
G----------------------------------------------------------------------|
D----------------------------------------------------------------------|
A----------------------------------------------------------------------|
D--4--4--4--6--6--6--7--7--7-------------------------------------------|

Chorus (play very slowly);
e---------------------------|
B---------------------------|
G---------------------------|
D---------------------------|
A---------------------------|
D--11----10----9------------|


That's the song just figure out the parts and everything yourself it's not to hard.
Tap to rate this tab
# A B C D E F G H I J K L M N O P Q R S T U V W X Y Z