Song name
# A B C D E F G H I J K L M N O P Q R S T U V W X Y Z

Revolver - El Roce De Tu Piel tab

e------------------------------------------------|
b-5--3--3-3-5-7-5-3-3--3-3-5-7-5-3-3---3-3-1-0---|
g----------------------------------------------2-|
D------------------------------------------------|
A------------------------------------------------|
E------------------------------------------------|


e------------------------------------------------|
b-5--3--3-3-5-7-5-3-3--3-3-5-7-5-3-3---3-3-1-0---|
g----------------------------------------------2-|
D------------------------------------------------|
A------------------------------------------------|
E------------------------------------------------|

santino_@hotmail.es
Tap to rate this tab
 
# A B C D E F G H I J K L M N O P Q R S T U V W X Y Z