Song name
# A B C D E F G H I J K L M N O P Q R S T U V W X Y Z

Revolver - Get Around Town tab

Revolver - Get around town
Standard tuning EADGBE

Tab by clementgb

Intro

Guit 1 only =

E ----------7-7-----7------------------------|
B --------------7-7---10-8-10-----10-8-10----|
G --9-7-9-9-------------------9-9---------9--|	(Fill 1)
D -------------------------------------------|
A -------------------------------------------|
E -------------------------------------------|

Then :

Guit 1 =

E ----------7-7-----7------------------------|
B --------------7-7---10-8-10-----10-8-------|
G --9-7-9-9-------------------9-9------9-9---|	(Fill 2)
D -------------------------------------------|
A -------------------------------------------|
E -------------------------------------------|

Guit 2 =
	Em    Em       Bm    Bm	       Am    Am	       Am    Am
E ------7-----7--------7-----7---------5-----5---------5-----5------|
B ------8-----8--------7-----7---------5-----5---------5-----5------|
G ------9-----9--------7-----7---------5-----5---------5-----5------|
D ------9-----9--------9-----9---------7-----7---------7-----7------|
A ----7--------------9---------------7---------------7--------------|
E ----------7--------------7---------------7---------------7--------|

or you can play as well =

	Em    Em       Bm    Bm	       Am    Am	       Am    Am
E ------0-----0--------2-----2---------0-----0---------0-----0------|
B ------0-----0--------3-----3---------1-----1---------1-----1------|
G ------0-----0--------4-----4---------2-----2---------2-----2------|
D ------2-----2--------4-----4---------2-----2---------2-----2------|
A ----2--------------2---------------0---------------0--------------|
E ----------0--------------2---------------0---------------0--------|


Chorus

Em		Bm
Get around town gentlemen
	 Am			Am
It's the bodies count down, the body counts down.
Em		Bm
Get around town gentlemen
	 Am			Am
It's the bodies count down, the body counts down.


Verse 1

   Em		    Bm
We need someone, we need someone
   Am			 Am
To go to jail for us, to go to jail for us.
   Em		    Bm
We need someone, we need someone
   Am			 Am
To go to jail for us, to go to jail for us.


Chorus

Em		Bm
Get around town gentlemen
	 Am			Am
It's the bodies count down, the body counts down.
Em		Bm
Get around town gentlemen
	 Am			Am
It's the bodies count down, the body counts down.

Then : Guit 1 = Fill 2


Verse 2

    Em		       Bm
You won't go home, you won't come back,
       Am			 Am
You'll go to jail for us, you'll go to jail for us.
    Em		       Bm
You won't go home, you won't come back,
       Am			 Am
You'll go to jail for us, you'll go to jail for us.


Chorus

Em		Bm
Get around town gentlemen
	 Am			Am
It's the bodies count down, the body counts down.
Em		Bm
Get around town gentlemen
	 Am			Am
It's the bodies count down, the body counts down.

Then : Guit 1 = Fill 1 and Fill 2


Verse 3

Em	      Bm
Such a drama, such a war,
  Am		    Am
A TV jail for us, a TV jail for us.
Em	      Bm
Such a drama, such a war,
  Am		    Am
A TV jail for us, a TV jail for us.


Chorus

Em		Bm
Get around town gentlemen
	 Am			Am
It's the bodies count down, the body counts down.
Em		Bm
Get around town gentlemen
	 Am			Am
It's the bodies count down, the body counts down.

Then : Guit 1 = Fill 1 and Fill 2


Verse 4

Em			    Bm
Police on the old place and camera lense,
       Am		  Am
You'll go to jail for us, TV jail for us.
Em			    Bm
Police on the old place and camera lense,
       Am		  Am
You'll go to jail for us, TV jail for us.


Chorus

Em		Bm
Get around town gentlemen
	 Am			Am
It's the bodies count down, the body counts down.
Em		Bm
Get around town gentlemen
	 Am			Am
It's the bodies count down, the body counts down.

(Second time with Guit 1 = Fill 1 and Fill 2) :

Em		Bm
Get around town gentlemen
	 Am			Am
It's the bodies count down, the body counts down.
Em		Bm
Get around town gentlemen
	 Am			Am
It's the bodies count down, the body counts down.
Tap to rate this tab
# A B C D E F G H I J K L M N O P Q R S T U V W X Y Z