Song name
# A B C D E F G H I J K L M N O P Q R S T U V W X Y Z

Revolver - Have You Seen My New Friends tab

Revolver - Have you seen my new friends ?
Standard tuning (EADGBE)

Tab by clementgb

(* : little doubt on the lyrics)

Figure 1 :

   D      F#m	   Em     A
E----2-2------2-2----0-0---------|
B----3-3------2-2----0-0----2-2--|
G----2-2------2-2----0-0----2-2--|
D--0------3/4------2--------2-2--|
A-------------------------0------|
E--------------------------------|


Figure 2 :

   Bb    Bb7   Gm+5  F#m6  F     C7    F      F7
E---------------------------------------------------|
B----3-----3-3---4-4---4-4---1-1---1-1---1-1---4-4--|
G----3-----3-3---3-3---3-3---2-2---3-3---2-2---2-2--|
D----3-----3-3---1-1---1-1---3-3---2-2---3-3---1-1--|
A--1---0-------------------------3------------------|
E--------4-----3-----2-----1-----------1------1-----|

   Bb    Bb7   Gm+5  F#m6  F     C7    F      A7
E------------------------------------------------|
B----3-----3-3---4-4---4-4---1-1---1-1---1-1--2--|
G----3-----3-3---3-3---3-3---2-2---3-3---2-2--0--|
D----3-----3-3---1-1---1-1---3-3---2-2---3-3--2--|
A--1---0-------------------------3------------0--|
E--------4-----3-----2-----1-----------1---------|


Intro : Figure 1

D     F#m	Em      A
Ouuuh Oouuhouuh Ouuuhouuhouuu...
D     F#m	Em      A
Ouuuh Oouuhouuh Ouuuhouuhouuu...
D     F#m	Em      A
Ouuuh Oouuhouuh Ouuuhouuhouuu...
D     F#m	Em      A
Ouuuh Oouuhouuh Ouuuhouuhouuu...


Verse 1 : Figure 1

D	      F#m    Em                A           D     F#m  Em  A		
Have you seen my new friends ? They're awesome and pretty.
D	     F#m    Em	   A  	   D 	F#  Em  A 
And they are almost famous in this city.
D	     F#m      Em      A	         D   	  F#m  Em  A
They love to teach me lots of incredible new games.
D	  F#m	     Em	    A           D	   F#m  Em  A
I'm never bored it's always fun with my new friends.

D     F#m	Em      A
Ouuuh Oouuhouuh Ouuuhouuhouuu...


Chorus : Figure 2

Bb       Bb7    Gm+5 F#m6      F             C7     F     F7
Have you seen my new friends ? You know it's been a week,
Bb      Bb7    Gm+5 F#m6     F          C7      F  A7
Since I know my new friends, I couldn't be more happy.


Verse 2 : Figure 2

D F#m Em A   (x2)

D	   F#m       Em       A	            D 	       F#m  Em  A
We love to go to the woods at night it's so frightening.
D	  F#m       Em        A	         D     F#m  Em  A
Not to be scared we drank and high* so exciting*
D	  F#m      Em          A	  D    F#m Em  A
They understand me better than you could ever hope to.
D	    F#m    Em    A	        D        F#m   Em   A
Sometimes I wonder how I could spend so much time with you.

D     F#m	Em      A
Ouuuh Oouuhouuh Ouuuhouuhouuu...
D     F#m	Em      A
Ouuuh Oouuhouuh Ouuuhouuhouuu...
D     F#m	Em      A
Ouuuh Oouuhouuh Ouuuhouuhouuu...
D     F#m	Em      A
Ouuuh Oouuhouuh Ouuuhouuhouuu...


Chorus : Figure 2

           Bb        Bb7    Gm+5 F#m6     F           C7        F     F7
If only... you could meet my new friends, you'll understand for sure.
Bb        Bb7      Gm+5 F#m6 F             C7  F  A7
How could you have known it, when you left me alo-one ?


Outro : Figure 1 slower

Guitar 2 (x4) = 

E------10--------------------------5------|
B-----------------10-10-9--8--8------7-5--|
G--/11----11---------11-10-9--9--6--------|
D--------------11-------------------------|
A-----------------------------------------|
E-----------------------------------------|

D    F#m  Em      A
Tou, tou, toudoudoudouwalalaladouladouawala     (x4, end on D)


Tap to rate this tab
 
# A B C D E F G H I J K L M N O P Q R S T U V W X Y Z