Song name
# A B C D E F G H I J K L M N O P Q R S T U V W X Y Z

Revolver - Balulalow tab

---------------------------------------------------------------------------
			    BALULALOW - Revolver
---------------------------------------------------------------------------
Tabbed by: clementgb
Email: clmntgbrt@gmail.com

Tuning: Standard (EADGBe)

(* : petit doute sur les paroles)

INTRO (Figure 1 & Figure A x2)

* Guitar 1 = Figure 1 :

e|----5---------5---------5---------5--------------6------------5-------5--|
B|------6---------6---------6---------6--------------6---6-----------8--8--|
G|--7-----7---6-----6---5-----5---4-----5------7-------7-------------6-----|
D|-----------------------------------------------8------------5------------|
A|------------------------------------------------------------7----7-------|
E|-------------------------------------------6----------------5----5-------|
      Dm	Dm+7	  Dm7       Dm6      A#		      A7

* Guitar 2, capo 5 = Figure A : 
 
e|----0--0------0--0------0--0------0--0------1--1--1--1------0-0-0-0--0-0--|
B|----1--1------1--1------1--1------1--1------1--1--1--1------3-3-3-3--3-3--|
G|----2--2------1--1------0--0------2--2------2--2--2--2------1-1-1-1--1-1--|
D|----2--2------2--2------2--2------4--4------3--3--3--3------2-2-2-2--2-2--|
A|----0--0------0--0------0--0------0--0------3--3--3--3------2-2-2-2--2-2--|
E|--------------------------------------------1--1--1--1------0-0-0-0--0-0--|
      Dm	Dm+7      Dm7	    Dm6	      A#	      A7


VERSE

* Guitar 1 = Figure 2 :

e|-5-5--5-5--5-5--5-5---5-5--5-5--5-5--5-5--------6-----------5-------5--|
B|-6-6--6-6--6-6--6-6---6-6--6-6--6-6--6-6----------6---6----------8--8--|
G|-5-5--6-6--7-7--6-6---5-5--6-6--7-7--8-8----7-------7------------6-----|
D|----------------------------------------------8-----------5------------|
A|----------------------------------------------------------7----7-------|
E|------------------------------------------6---------------5----5-------|
   F    F+   Dm   F+    F    F+   Dm   F7   A#              A7

* Guitar 2, capo 5 = Figure B :

e|-0-0--x-x--0-0--x-x---0-0--x-x--0-0--x-x--1-1-1-1--0-0-0-0--0-0--|
B|-1-1--1-1--1-1--1-1---1-1--1-1--1-1--1-1--1-1-1-1--3-3-3-3--3-3--|
G|-0-0--1-1--2-2--1-1---0-0--1-2--2-2--3-3--2-2-2-2--1-1-1-1--1-1--|
D|-2-2--2-2--2-2--2-2---2-2--2-2--2-2--2-2--3-3-3-3--2-2-2-2--2-2--|
A|-3-3--3-3--3-3--3-3---3-3--3-3--3-3--3-3--3-3-3-3--2-2-2-2--2-2--|
E|------------------------------------------1-1-1-1--0-0-0-0--0-0--|
   F    F+   Dm   F+    F    F+   Dm   F7   A#       A7

    F        F+         Dm         F+ 
You lay there, till the end of the day
       F   F+         Dm          F7      
Hiding away, a few needles in the hay
      A#	      A7	 F    F+   Dm    F+
Cause all you know is time won't stop.

    F     F+         Dm          F+
You get up, when you can see the moon
       F     F+        Dm             F7
By the window, but you think it's too soon
     A#			  A7             Figure 1 & Figure A x2
Some people they're still running in the streets.


    F         F+        Dm           F+   
You wait there, and you don't take a side
	 F       F+        Dm           F7
You keep floating, and you sing all the time
    A#            A7           F     F+   Dm    F+
And after all the world stands still.

    F     F+       Dm       F+
You go out, to the river at dawn
         F     F+          Dm            F7
You walk around, trying to keep yourself warm
  A#                A7
Until the day comes up...


CHORUS (Figure 1 & Figure A)

Dm Dm+7	     Dm7          Dm6        A#    A7
Go where you want to, but don't look back. Hoooo      (x4)

________________________________________________________________

Dans la version EP (et parfois live) est ajoutÚ ici ce passage :

A jouer de la fašon suivante avec le capo 5 =

C   [320033]
E7  [x21202]
F   [x32010]
Am  [022000]
A7  [022130]
Dm  [x02210]
G   [xx0232]
Gm  [xx0231]

C	      E7         F C
  Sometimes I dream of melodies
Am   A7  	    Dm   G
  (...)*  we had to ride them
C	E7	    F      C
  Balulalows really helped me
Am	       A7 	  Dm   G       Dm     G
  Without them I couldn't have made it Ooohooohooooo

C E7 F C
Am A7 Dm G Dm G Gm
_________________________________________________________________


ENDING (Figure 2 & Figure B)

F             F+	     |
   Papapaaaaaaaapalapalapa   | (x4)
Dm	      F+             |
   Papapaaaaaaaapalapalapa   |

Or :

F             F+	     |
   Papapaaaaaaaapalapalapa   | (x2)
Dm	      F+             |
   Papapaaaaaaaapalapalapa   |

    F                   F+                     |
You wait there, and you don't take a side      |(x2)
	 Dm                F+                  |
You keep floating, and you sing all the time   |
Tap to rate this tab
 
# A B C D E F G H I J K L M N O P Q R S T U V W X Y Z