Song name
# A B C D E F G H I J K L M N O P Q R S T U V W X Y Z

Revolverheld - Generation Rock tab

Song: Generation Rock
Artist: Revolverheld
From: Guitar Hero III
Tabbed by: David Chiaramonte

I just started playing power chords along side the song until I found out which ones to 
and when. I've got the intro and part of the chorus down. tell me what you think.

Tab Legend

b=half bend
#b#=bend to that number
p=pull off

intro
e|----------------------------------6---------------------|
B|------7---7---------------------7---7-------------------|
G|--------8---(x7)--then-------8---------(x1)-------------| x2
D|----9---------------------------------------------------|
A|--------------------------------------------------------|
E|--------------------------------------------------------|

final played intro
e|-----------------------|
B|------7---7------------|
G|--------8---(x7)-------|
D|----9------------------|
A|-----------------------|
E|-----------------------|

at the end of the last intro (also intro to chorus)
e|-----------------------|
B|-----------------------|
G|---6b8-----------------| x1
D|-----------------------|
A|-----------------------|
E|-----------------------|
  BEND SLOWLY!!!

chorus
e|-------------------------------7b-----------------------|
B|--------------------------------------------------------|
G|--------------------------------------------------------| x3
D|-6-6-6-6--------------2-2-2-2---------------------------|
A|-6-6-6-6--------------2-2-2-2---------------------------|
E|-4-4-4-4---7p4--7p4---0-0-0-0---------------------------|

thats it. it sounds right on my guitar. the bends might be a little off, but thats about 
everything else sounds right. comment it if you have suggestions.
Tap to rate this tab
# A B C D E F G H I J K L M N O P Q R S T U V W X Y Z