Song name
# A B C D E F G H I J K L M N O P Q R S T U V W X Y Z

Revolverheld - Mit Dir Chilln tab

Revolverheld - Mit dir Chilln


Meine (zu 99% richtige) Interpretation vom Anfang…
Bei Einwänden einfach E-Mail an kratos9005@yahoo.de


|--------------------------------3---2-0------|
|------0----------3---------3-----------------|
|-------0-------0---0-----0---0----0----------|
|---------------------------------------------|
|---2---------2---------3---------------------|
|--0------------------------------------------|


|---------------------------------------------|
|------0----------3---------3---3----1-0------|
|-------0-------0---0-----0---0---0-----------|
|---------------------------------------------|
|---2---------2---------3---------------------|
|--0------------------------------------------|


Greetz


Tabbed by Kratos9005
Tap to rate this tab
# A B C D E F G H I J K L M N O P Q R S T U V W X Y Z