Song name
# A B C D E F G H I J K L M N O P Q R S T U V W X Y Z

Revolverheld - Generation Rock tab

Well this is how I play Generation Rock by Revolverheld.

Intro, I donít think it is this but its pretty right:
|------------|-----6----|
|---7---7----|---7---7--|
|-----8---x6-|----------|	x2
|-9----------|-9--------|
|------------|----------| 
|------------|----------|
	     First time, but not second time.
Pre-chorus:
|----------------------------| 
|----------------------------|
|-------9------6------4------|
|-6-----9------6------4------|	x2 
|-6-x16-7---x8-4---x3ó2---x3-| 
|-4--------------------------| 

Chorus:
|-------------------------9-| 
|---------------------------| 
|---------------------------| 
|-6-6-6-6---------2-2-2-2---|	x2
|-6-6-6-6---------2-2-2-2---|
|-4-4-4-4-7p4-7p4-0-0-0-0---| 

Bridge:
|------------------------------------------| 
|------------------------------------------|
|-------9------6------4--------------------|
|-6-----9------6------4------4-X-X-4-X-X-2-|
|-6-x16-7---x8-4---x3ó2---x3-4-X-X-4-X-X-2-| 
|-4--------------------------2-X-X-2-X-X-0-| 

Verse2 this is not the original, but it sounds better:
|-----7----7-----|-------10-----10------|
|-------8----8-x2|----------11-----11-x2|
|-9-9------------|-12-12----------------|
|----------------|----------------------|
|----------------|----------------------|
|----------------|----------------------| 

Bridge2:
|-----------------------------|
|-----------------------------|
|-----------------------------|
|-----------------------------|
|-----------------------------|
|-4---x8-3---x8-7---x8-9---x8-|


Jam:
|-8---x16-| 
|---------| 
|---------| 
|---------| 
|---------| 
|---------| 
Bend it slowly more and more.

Jam2:
|-9---x16-|
|---------| 
|---------| 
|---------| 
|---------|
|---------| 
Bend it slowly more and more.


Intro
Pre-chorus
Chorus
Bridge
Intro
Pre-chorus
Chorus
Bridge
Verse2 Donít know how many times
Bridge2
Jam
Chorus
Bridge
Jam2
Chorus
Bridge


Thank you for watching // Robert Asph
Tap to rate this tab
# A B C D E F G H I J K L M N O P Q R S T U V W X Y Z