Song name
# A B C D E F G H I J K L M N O P Q R S T U V W X Y Z

Revolverheld - Spinner tab

Revolverheld - Spinner
Capo II


Verse / Chorus

B [x20033]
G [320033]
C [x32033]
D [xx0033]

Pre Chorus :

B [x20033]
----------
C [x32033]
----------

Intro:
---------------------------------------|
----3--3-----3--3-----3--3----3---3----|
---0----0---0----0---0----0--0-0-0-0---|
--4--4---4-4--4---4-4--4---4-----------|
-------------------3--------3---5------|
-0--------3----------------------------|


Strophe

B                        G
Er ist allein in seinem Zimmer
                   C
steht vor dem Spiegel
                   D
Und singt seine Lieder

Sie hat Jahre lang geschrieben
An alle Firmen ihrer Stadt
Doch es kam nie was wieder

Er will eigentlich schon immer
Die ganze Welt bereisen
Spart alles was er hat

Sie spielt tausend kleine Rollen
Und will nach Hollywood
hat das alles hier so satt


Pre Chorus

B-----
Lass dein altes Leben hinter dir
C-----
Und geh durch diese neue Tür


Chorus

B                       G
Das geht raus an alle Spinner
                  C
Wir sind die Gewinner
                 D
Wir kennen keine Limits
Ab Heute - für immer


B                      G
Das geht raus an alle Spinner
                    C
Weil alles ohne Sinn wär
       D
Ohne Spinner wie dich und mich

usw......


Riff Refrain:

-12--------12--------14-----12--------12--------14-------|
----10--------10--------10-----10--------10--------10----|
-------13--------13---------------13--------13-----------|
---------------------------------------------------------|
---------------------------------------------------------|
---------------------------------------------------------|

-12--------12--------12-----10--------10--------10-------|
----10--------10--------10-----10--------10--------10----|
-------13--------13---------------13--------13-----------|
---------------------------------------------------------|
---------------------------------------------------------|
---------------------------------------------------------|
Tap to rate this tab
 
# A B C D E F G H I J K L M N O P Q R S T U V W X Y Z