Song name
# A B C D E F G H I J K L M N O P Q R S T U V W X Y Z

Revolverheld - Ich Lass Fur Dich Das Licht An tab

Hi im Christian from "Christians How To Plays"

These Chords/Tabs are 100% correct. 

To look how i play the strumming and picking parts please visit my video lesson of the Song: 

https://www.youtube.com/watch?v=FeYPv4R2Z48

Please Comment, Like and share my Videos.

Now, have fun with the Song: 




Artist: Revolverheld
Song: Ich Lass Fur Dich Das Licht An


Intro:



B E G#m E


             INTRO                                      
             H        H           Q    E  Q    E  Q     
E||-------|--------------------|-------7--9----7-------|
B||-------|--7--------7--------|--7---------------7----|
G||-------|--8--------8--------|--8--------------------|
D||-------|--9--------9--------|--9--------------------|
A||-------|--9-----------------|-----------------------|
E||-------|--------------------|-----------------------|


  H        H           E  E  E  Q    E  Q       H        H         
--------------------|--------7--9----7-------|--------------------|
--7--------7--------|--7----------------7----|-----------7--------|
--9--------9--------|-----9------------------|--9--------9--------|
--9--------9--------|------------------------|--9--------9--------|
--7-----------------|--7---------------------|--7-----------------|
--------------------|------------------------|--------------------|


  H        H           H        H           H        Q    Q     
--------------------|--------------------|---------------------|
--------------------|--------------------|-----------7---------|
--8--------8--------|--9--------9--------|--9------------------|
--6-----------------|--9--------9--------|--9-------------9----|
-----------6--------|--7--------7--------|--7--------7---------|
--------------------|--------------------|---------------------|


VERSE:

H         H           H        H         
-------|----------------------|--------------------|
-------|----------------------|-----------7--------|
-------|--11--------11--------|--8--------8--------|
-------|--11--------11--------|--9--------9--------|
-------|---9------------------|--9-----------------|
-------|----------------------|--------------------|


  H        H           H        E   Q.              
--------------------|----------------------|-------|
--------------------|--7-------------------|-------|
--9--------9--------|--9-------------------|-------|
--9--------9--------|--9--------9--11------|-------|
--7-----------------|----------------------|-------|
--------------------|----------------------|-------|


Verse 1:
F#              B
Wenn wir Nachts nach Hause gehen
E
die Lippen blau vom Rotwein
F#                    B
und wir uns bis vorne an der Ecke 
E
meine große Jacke teilen 
F#               B
der Himmel wird schon morgenrot 
E
doch du willst noch nicht schlafen
F#               B
ich hole uns die alten Räder
E
und wir fahren zum Hafen







Refrain:

                      B
Ich lass für dich das Licht an

obwohls mir zu hell ist
                  E
ich hör mit dir Platten 

die ich nicht mag
                  G#m
ich bin für dich leise
            F#
wenn du zu laut bist
                   E
renn für dich zum Kiosk

ob Nacht oder Tag
                      B
ich lass für dich das Licht an

obwohls mir zu hell ist
                 E
ich schaue mir Bands an

die ich nicht mag
              G#m
ich gehe mit dir in die 
             F#
schlimmsten Schnulzen
                E
ist mir alles egal
               
hauptsache du bist da



CHROUS MELODY                                                                                  
                                      
  Q              Q    H           Q    Q    H         
----------------------7--------|------------7--------|
--7--------------7-------------|--5----7-------------|
-------------------------------|---------------------|
-------------------------------|---------------------|
-------------------------------|---------------------|
-------------------------------|---------------------|


  H        H           Q    Q    H          
--------------------|------------7--------||
--5--------4--------|--5----7-------------||
--------------------|---------------------||
--------------------|---------------------||
--------------------|---------------------||
--------------------|---------------------||



Verse 2

F#              B
Ich würde meine Lieblingsplatten
E

sofort für dich verbrennen
F#                    B
Und wenn es für dich wichtig ist,
E
bis nach Barcelona trampen
F#                    B
Die Morgenluft ist viel zu kalt
E
und ich werde langsam heiser
F#                    B
Ich seh? nur dich im Tunnelblick
E
und die Stadt wird langsam leiser


Refrain:

                      B
Ich lass für dich das Licht an

obwohls mir zu hell ist
                  E
ich hör mit dir Platten 

die ich nicht mag
                  G#m
ich bin für dich leise
            F#
wenn du zu laut bist
                   E
renn für dich zum Kiosk

ob Nacht oder Tag
                      B
ich lass für dich das Licht an

obwohls mir zu hell ist
                 E
ich schaue mir Bands an

die ich nicht mag
              G#m
ich gehe mit dir in die 
             F#
schlimmsten Schnulzen
                E
ist mir alles egal
               
hauptsache du bist da

Instrumental Bridge: 
F# G#m E   G#m F#  x4


Refrain:

                      B
Ich lass für dich das Licht an

obwohls mir zu hell ist
                  E
ich hör mit dir Platten 

die ich nicht mag
                  G#m
ich bin für dich leise
            F#
wenn du zu laut bist
                   E
renn für dich zum Kiosk

ob Nacht oder Tag
                      B
ich lass für dich das Licht an

obwohls mir zu hell ist
                 E
ich schaue mir Bands an

die ich nicht mag
              G#m
ich gehe mit dir in die 
             F#
schlimmsten Schnulzen
                E
ist mir alles egal
               
hauptsache du bist da

Endverse: 

Verse 1:
F#              B
Wenn wir Nachts nach Hause gehen
E
die Lippen blau vom Rotwein
F#                    B
und wir uns bis vorne an der Ecke 
E
meine große Jacke teilen
Tap to rate this tab
# A B C D E F G H I J K L M N O P Q R S T U V W X Y Z