Song name
# A B C D E F G H I J K L M N O P Q R S T U V W X Y Z

Revolverheld - Arme Hoch tab

(Verse)

E|--------------------------------------|      |
B|--------------------------------------|      |
G|--------------------------------------|      |
D|-5-5--5-5-5-5-5--5-5-5-5-5--5-5-5-6-6-|      |
A|-5-5--5-5-5-5-5--5-5-5-5-5--5-5-5-6-6-|      |
D|-5-5--5-5-5-5-5--5-5-5-5-5--5-5-5-6-6-|      |
         p p p      p p p     p p p            |        X2
                                               |
E|--------------------------------------|      |
B|--------------------------------------|      |
G|--------------------------------------|      |
D|-1-1--1-1-1-1-1--1-1-1-1-1--1-1-1-4-4-|      |
A|-1-1--1-1-1-1-1--1-1-1-1-1--1-1-1-4-4-|      |
D|-1-1--1-1-1-1-1--1-1-1-1-1--1-1-1-4-4-|      |
         p p p      p p p     p p p  

(Chorus)

E|--------------------------------------------------------|      
B|--------------------------------------------------------|      
G|--------------------------------3--3-3-3--3-3-3--3-3-3--|    
D|-5--5-5-5--5-5-5--5-5-5--5-5-5--3--3-3-3--3-3-3--3-3-3--| 
A|-5--5-5-5--5-5-5--5-5-5--5-5-5--1--1-1-1--1-1-1--1-1-1--|       
D|-5--5-5-5--5-5-5--5-5-5--5-5-5--------------------------| 
                                                                      X2
E|--------------------------------------------------------|      
B|--------------------------------------------------------|      
G|--------------------------------------------------------|    
D|-3--3-3-3--3-3-3--3-3-3--3-3-3--1--1-1-1--1-1-1--4-4-4--| 
A|-3--3-3-3--3-3-3--3-3-3--3-3-3--1--1-1-1--1-1-1--4-4-4--|       
D|-3--3-3-3--3-3-3--3-3-3--3-3-3--1--1-1-1--1-1-1--4-4-4--|

Tap to rate this tab
# A B C D E F G H I J K L M N O P Q R S T U V W X Y Z