Song name
# A B C D E F G H I J K L M N O P Q R S T U V W X Y Z

Revs - Alone With You tab

-------------------------------------------------------------------------------
			     Alone with you (raw) - The revs 
                                    www.therevs.com
-------------------------------------------------------------------------------

Tabbed by: B@lls 
Email: adbcrazy@hotmail.com

Tuning: Standard 

The bass tab is incorperated into it
( could be done lower with chorus pedal )
but sounds good on its own or on acoustic...
Chords can be played using the Capital letter above

Intro
    B    F#
e|---------------------------------------------------------------------------|
B|---------------------------------------------------------------------------|
G|-9->--11---Palm Mutted repeated twice--------------------------------------|
D|-9->--11-------------------------------------------------------------------|
A|-9->---9-------------------------------------------------------------------|
E|---------------------------------------------------------------------------|

Or
   B     C#
e|---------------------------------------------------------------------------|
B|---------------------------------------------------------------------------|
G|---------------------------------------------------------------------------|
D|-9-->--11--Palm Mutted repeated twice--------------------------------------|
A|-9-->--11------------------------------------------------------------------|
E|-7-->--9-------------------------------------------------------------------|

Intro and verse :

Part 1
    F#         B 
e|---------------------------------------------------------------------------|
B|---------------------------------------------------------------------------|
G|--11----11----11----11-----------------------------------------------------|
D|----11----11----9-----9----------------------------------------------------|
A|-9-----9-----9-----9-------------------------------------------------------|
E|---------------------------------------------------------------------------|

Part 2 or (u you can just use part 1)
    C#     C#     E      B       C#          B
e|---------------------------------------------------------------------------|
B|---------------------------------------------------------------------------|
G|---------------------------------------------------------------------------|
D|--11-----11------13------9-------11----------(9)---------------------------|
A|----11-----11------13------9-------11-----------(9)------------------------|
E|-9------9------11------7--------9---------(7)------------------------------|

Chorus
   F#       B
e|---------------------------------------------------------------------------|
B|---------------------------------------------------------------------------|
G|-11--->---11---------------------------------------------------------------|
D|-11--->--(9)----Keep hitting on the 11th fret and palm mutting-------------|
A|-9---->---9----------------------------------------------------------------|
E|---------------------------------------------------------------------------|
   C#     B
e|---------------------------------------------------------------------------|
B|---------------------------------------------------------------------------|
G|--------11-----Repeat to fit then folow with-------------------------------|
D|-11-->--9---------------------------------------11-->----9-----------------|
A|-11-->--9---------------------------------------11-->----9-----------------|
E|-9--->--9---------------------------------------9--->----7-----------------|

Outro (Softly)
  F#   B   C#   F#
e|--------------------------------------------------------------------------|
B|--------------------------------------------------------------------------|
G|11-----------11-----------------------------------------------------------|
D|11--9---11---11-----------------------------------------------------------|
A|9---9---11---9------------------------------------------------------------|
E|----7---9-----------------------------------------------------------------|

All Part are joined by (Part 1 )

| /  slide up
| \  slide down
| h  hammer-on
| p  pull-off
| ~  vibrato
| +  harmonic
| x  Mute note

===============================================================================
Tap to rate this tab
# A B C D E F G H I J K L M N O P Q R S T U V W X Y Z