Song name
# A B C D E F G H I J K L M N O P Q R S T U V W X Y Z

Rey Patricio - Mascre En El Puticlub tab

Intro:

|6-6-6-6-5-5-5-5-4-4-4-4-4---|-----------------------------------------|
|5-5-5-5-4-4-4-4-3-3-3-3-3---|-----------------------------------------|
|6-6-6-6-5-5-5-5-4-4-4-4-4---|--3-------3-----------------3------------|
|----------------------------|----2-4-----2h3p2h3p2h3p2-----2-4--------|
|--------------------------7\|----------------------------------3-3-3-3|
|----------------------------|2-------2-----------------2--------------|
 
|--------------------------------|3-3|---------------------------------|-0-||
|--------------------------------|2-2|---------------------------------|-5-||
|--3-------3-----------------3---|3-3|--3-------3-----------------3----|-4-||
|----2-4-----2h3p2h3p2h3p2-----24|---|----2-4-----2h3p2h3p2h3p2-----2-4|-3-||
|--------------------------------|---|---------------------------------|-4-||
|2-------2-----------------2-----|---|2-------2-----------------2------|2--||

Estrofa: 

Fa#7x2  Fa7 slide Fa#7  Fa#7x2

|-14----14----||
|----14----14-||
|-------------||
|-------------||
|-------------||
|-------------||

Fa#7x2  Fa7 slide Fa#7  Fa#7

Estribillo:

Do#m7x4

|---------------------|-----------------------|
|---------------------|-----------------------|
|--------------4-2---2|--------------6-4---4--|
|----------1-4-4---4--|----------3-6-6---6---6|
|2-2-2-2-2------------|4-4-4-4-4--------------|
|---------------------|-----------------------|

|---------------------|-----------------------|
|---------------------|-----------------------|
|--------------4-2---2|--------------6-4---4--|
|----------1-4-4---4--|----------3-6-6---6---6|
|2-2-2-2-2------------|4-4-4-4-4--------------|
|---------------------|-----------------------|

Mi7x2  Re#7 slide Mi7  Mi7x1  Fa#7

 
El tema es esto por 3 veses

Aguanten los redondos
Tap to rate this tab
 
# A B C D E F G H I J K L M N O P Q R S T U V W X Y Z