Song name
# A B C D E F G H I J K L M N O P Q R S T U V W X Y Z

Rey Valera - Kung Kailangan Mo Ako tab

Standard Tuning.
Capo on 2nd Fret

Chord Shapes:

  Cmaj - Am - Fmaj


      C       Am       F

 E --------- --------  -1----- --------------------|
 A --3------ -0------- ------- -2--2---------------|
 D --------- ---2----- ------- --------------------|
 G --------- --------- ----2-- --------0-----------|
 B --1---3-- -1-----1- -1-1-1- -1--3-1-------------|
 E ----0---- ------0-- ------- --------------------|


      C       Am       F

 E --------- --------  -1----- -------- ----------|
 A --3------ -0------- ------- -2--2--- --0-------|
 D --------- ---2----- ------- -------- ----------|
 G --------- --------- ----2-- -------- --0-------|
 B --1---3-- -1-----1- -1-1-1- -1--3--- --1-------|
 E ----0---- ------0-- ------- -------- --0-------|


Hope you liked it :)
First time making a tab \m/
Tap to rate this tab
# A B C D E F G H I J K L M N O P Q R S T U V W X Y Z