Song name
# A B C D E F G H I J K L M N O P Q R S T U V W X Y Z

Rey Valera - Maging Sino Ka Man tab

eto ung adlib nya... subukan nyo 2

--------------------------------------------------------|
--------------------------------------------------------|
----10--11s13-13--11-10--7-7--10--5---------------------|
--------------------------------------------------------|
--------------------------------------------------------|
--------------------------------------------------------|

-----------------------------11-10--7--10---------------|
----10--11s13-------------------------------------------|
---------------10-10--12--10----------------------------|
--------------------------------------------------------|
--------------------------------------------------------|
--------------------------------------------------------|

hello to my friends......
krister,athan,ian.and fidel
astig.....................
Tap to rate this tab
 
# A B C D E F G H I J K L M N O P Q R S T U V W X Y Z