Guitaretab - guitar tabs
Song name
# A B C D E F G H I J K L M N O P Q R S T U V W X Y Z

Reyli - Tonto Enamorado tab

Highlighted       Show chord diagrams
tQmMm Rubi

TONTO ENAMORADO


Intro:

   Em             Am        B             Em
e ----------------------------------------------|
B ----------------(1)------(0)—-(0)-------------|
G ----------------(0)---------------------------|
D –(2)-----------2------------------------(2)---|
A –(2)---------2---3----3-3-2----2-0---0-2(2)---|
E --0----0-2-3-----------------------3-----0----|

VERSO I

         Em                        Am
Ya lo he dicho tantas veces, no me quiero repetir

C                       B                B7
Pero tu amor lo merece, no lo dejo de sentir

    Em                        Am
Mariposas, lunas llenas, primavera por venir

C                   B       C                 B7
Pide y dame lo que quieras, yo he nacido para ti.

CORO

C            D   G              C
Tonto enamorado, eso es lo que soy

Am           B   Em          E7
Nada complicado, solo busco amor

C             D   G             C
Ábreme la puerta, dame una canción

Am            B7               Em
Bésame los labios y después me voy.


             Em                   Am            C           
  Em
e --3-2--------------------------------------------------------------|
B ------3-----0------0------------(1)--------------------------------|
G -----------------2---------------2----4-2--------------------------|
D –----------(2)-------2---------2-----------------------------------|
A –----------(2)---------------2---3------------2------------0-------|
E ------------0--------0-0-2-3------------------------------------0--|
                                            'shufarawaraherihey'

VERSO II
[ Tab from: http://www.guitaretab.com/r/reyli/112730.html ]
      Em                       Am
Mi destino es una fiesta, mi pasado una lección

C                          B                 B7
Tu mirada es la respuesta, me lo dice el corazón

Em                            Am
Quédate hasta que amanezca, y vuelve al anochecer

C                     B       C                B7
Sin preguntas sin respuestas, solamente pa’ querer

CORO

C            D   G              C
Tonto enamorado, eso es lo que soy

Am           B   Em          E7
Nada complicado, solo busco amor

C             D   G             C
Ábreme la puerta, dame una canción

Am            B7   C-D-G-C-Am-B-Em-E7
Bésame los labios, oooh...


C            D   G              C
Tonto enamorado, eso es lo que soy

Am           B   Em          E7
Nada complicado, solo busco amor

C             D   G             C
Ábreme la puerta, dame una canción

Am            B7               Em
Bésame los labios y después me voy.


e -----------------5-------------------0-------------------0----|
B ------------5-------------------3-------------------3---------|
G -------5-------------------4-------------------4--------------|
D --7-------------------4-------------------2-------------------|
A --------------------------------------------------------------|
E --------------------------------------------------------------|
                             Y  después me voy


e ---------------0-----0--------|
B -----------3---------0--------|
G ---------2---2-------0--------|
D -------4-------------2--------|
A --2------------------2--------|
E ---------------------0--------|
                       Uuuh...
Related for Tonto Enamorado tab