Guitaretab - guitar tabs
Song name
# A B C D E F G H I J K L M N O P Q R S T U V W X Y Z

Rgovula - The Poorface & The Pudding tab

t. See http://www.olga.net/faq/ for more information.                     #
#-----------------------------------------------------------------------------#

From: "Iain Preston" 
Subject: r/rgovula.the_poorface_and_the_pudding.crd
Date: Wed, 18 Aug 1999 19:31:15 +0100

Group: Rgovula

TItle: The Pooface and the Pudding

The Pooface and the Pudding

MAIN RIFF
E------------------------------------------------------------------
B------------------------------------------------------------------
G------------------------------------------------------------------
D-------9-8-7---------------------9-8-7----------------------------
A-----9-------9-8-7-------------9-------9-8-7----------------------
E-7-7---------------9-8-7---7-7---------------9-8-7---7--7-5-7-5-7-

E------------------------------------------------
B------------------------------------------------
G------------------------------------------------
D----------------------------------------------7-
A--------7-5--------------------------7-5------7-
E-5-7-5------7-5---7-7-5-7-5-7-5-7-5------7-5--5-

Verse 1
B                       A
          B                   A
B                    C
B                  A     B

Bridge
G  G  G   G  G
G  G  G   G  G
A  A   AA   A  A     A A  A

Verse 2
B                       A
    B     B                   A
B                    C
B                  A     B

Bridge
G  G  G   G  G
G  G  G   G  G
A  A   AA   A  A     A A  A

Chorus (use octaves)
B                   C
A                   B
G                   A            G     A       B

MAIN RIFF

Middle 8 (muted)
B    B    BB   B B   B    A
E    E    EE   E E   E    A
B    B    BB   B B   B    A
G G    AA   B B      (not muted)

CHORUS (x2)
[ Tab from: http://www.guitaretab.com/r/rgovula/16112.html ]
×
The Poorface & The Pudding