Guitaretab - guitar tabs
Song name
# A B C D E F G H I J K L M N O P Q R S T U V W X Y Z

Rhapsody Of Fire - Heart Of The Darklands tab

Not tabbed by me!
Just the intro to the song
Stanard tuning, blah blah
Overdrive!
                                                        ~    ~
E|-------------------------------------------------------------|
B|-------------------------------------------------------------|
G|12-0-15-0-14-0-12-0-10-0-12-0-8-0-7-0-5-0-8-0-7-0-5-0--------|
D|------------------------------------------------------8----7-|
A|-------------------------------------------------------------|
E|-------------------------------------------------------------|
                                                 ~
E|------------------------------------------------------------|
B|------------------------------------------------------------|
G|12-0-15-0-14-0-12-0-10-0-12-0-8-0-7-0-8--5-----7------------|
D|--------------------------------------------7---------------|
A|------------------------------------------------------------|
E|------------------------------------------------------------|

The Single Legend:
~ : Vibrato
[ Tab from: http://www.guitaretab.com/r/rhapsody-of-fire/86144.html ]
Related for Heart Of The Darklands tab