Song name
# A B C D E F G H I J K L M N O P Q R S T U V W X Y Z

Rhesus - I Still Think Of You Sometimes tab

main part
                        x4            x4
|-------0-|--------0----|---------0---|
|-0-------|-0---------0-|-0---------0-|
|---------|-------------|-------------|
|---------|-------------|-------------|
|---------|-------------|-----0-------|
|----0----|----0--------|-------------|

chorus

|-0-------0-|--------0----|----------4-6-7--6-4-|
|---0-------|-0---------0-|-0-------------------|
|-----------|-------------|---------------------|
|-----------|-------------|---------------------|
|------4----|----2--------|-----0---------------|
|-----------|-------------|---------------------|


E
I still think of you sometimes
A
Late, on my own...
Wondering what went wrong
You were such a lover
A hiding place or a shelter

C#5           B5               A5
Why am i here searching for your number ?
Digging in the dirt, searching for the gold.

I still think of you sometimes
The view from your room
And the smell of the staircase
And the last kiss we had
And your big brown eyes
Glowing in the dark...

Why am i here searching for your number ?
Digging in the dirt, searching for...
Why am i here searching for your number ?
Digging in the dirt, searching for... the gold...

A5   B5   C#5    E5
Where are you now ?
A5   B5   F#5    G#5
Where are you now ?...
Tap to rate this tab
 
# A B C D E F G H I J K L M N O P Q R S T U V W X Y Z