Rhett And Link - In The 80s tab

-------------------------------------------------------------------------------
			     In the 80s - Rhett and Link
-------------------------------------------------------------------------------
Tabbed by: Guitarplayer524
Email: iwlamb4@gmail.com

Tuning: Standard EADGBE
Intro/Verse/Guitar 1
e|-------------------------------------------------------------------------|
B|----8-----8---8-----8-----8---8----8----8-8-----8------------------------|
G|----9-----9---9-----9-----9---9----9----9-9-----9------------------------|
D|----------------0-0---0-0---0--------------------------------------------|
A|7-7---7-7---7---------------------------------------------7--------------|
E|--------------------------------8-8---8-----7-7---7-7h8h10--h10----------|
Verse/Guitar 2
e|-------------------------------------------------------------------------|
B|-------------------------------------------------------------------------|
G|-------------------------------------------------------------------------|
D|-------------------------------------------------------------------------|
A|7777777777777777777777777777777777777777777777777777777777777777777777777|
E|-------------------------------------------------------------------------|
Riff 1/Guitar 1 (play with harmonizor)
e|12h10--------------------------------------------------------------------|
B|-----12h10---------------------------------------------------------------|
G|----------12h9-----------------------------------------------------------|
D|--------------12h9-------------------------------------------------------|
A|------------------12h10--------------------------------------------------|
E|-----------------------12h10h12------------------------------------------|
Pre-chorus/both Guitars
e|-------------------------------------------------------------------------|
B|-------------------------------------------------------------------------|
G|-------------------------------------------------------------------------|
D|10---------9-------------------------------------------------------------|
A|10---------9-------------------------------------------------------------|
E|-8---------7-------------------------------------------------------------|
Chorus/both Guitars
e|-------------------------------------------------------------------------|
B|-------------------------------------------------------------------------|
G|-------------------------------------------------------------------------|
D|2--5-2--2-5-2--2-5-2-7----2--2-2--2-5-2--2-5--7---5---2------------------|
A|2--5-2--2-5-2--2-5-2-7----2--5-2--2-5-2--2-5--7---5---2------------------|
E|0--3-0--0-3-0--0-3-0-5----0--3-0--0-3-0--0-3--5---3---0------------------|

Order:
Intro
Verse 1 (Verse/Guitar 1, Verse/Guitar 2, Riff 1/Guitar 1)
Pre-chorus
Chorus
Riff 1
Verse 2 (Verse/Guitar 1, Verse/Guitar 2, Riff 1/Guitar 1)
Chorus

************************************

| /   slide up
| \   slide down
| h   hammer-on
| p   pull-off
| ~   vibrato
| +   harmonic
| x   Mute note
| b   Bend
| pb  Pre-bend
| br  Bend release
| pbr Pre-bend release
| brb Bend release bend

************************************
Tap to rate this tab
 
# A B C D E F G H I J K L M N O P Q R S T U V W X Y Z