Song name
# A B C D E F G H I J K L M N O P Q R S T U V W X Y Z

Rhodes - Raise Your Love tab

Tuning = DGCFAg
No Capo

Strum Pattern = DDDD avoid using nail/pick for this song

x = Don't play

Intro/verse

D----0------5------3----|
C----7------7------3----|
C----7------7------2----|
F----0------0------0----|
A----x------x------x----|
D----x------x------x----|

Pre-chorus

D----0------7------0------5----|
C----7------9------5------7----|
C----9------9------7------7----|
F----9------x------7------x----|
A----x------x------x------x----|
D----x------x------x------x----|

Chorus/Outro

D----0------5------0------3----|
C----5------7------3------5----|
C----7------7------5------5----|
F----7------x------5------x----|
A----x------x------x------x----|
D----x------x------x------x----|

May be a bit off, let me know of any changes.
Tap to rate this tab
# A B C D E F G H I J K L M N O P Q R S T U V W X Y Z