Song name
# A B C D E F G H I J K L M N O P Q R S T U V W X Y Z

Rhubarb - Exerciser tab

This is a very easy song to play, my first tab, 
thought id give this a go. 

Intro: Mild Distortion
e-------------------------|
b-------------------------|
g-------77777-------555555|
d-55555-77777-77777-555555| x4
a-55555-55555-77777-333333|
e-33333-------55555-------|
'Dont skate, dont surf, 
dont worry bout my turf, 
gotta car, in the yard, dont wont it to go fast, 
and i wonna know if im coming down with anything 
and ive got a hero that ill follow to the end, Im an EX-'

Full Distortion
e-------------------------|
b-------------------------|
g-------77777-------555555|
d-55555-77777-77777-555555| x11
a-55555-55555-77777-333333|
e-33333-------55555-------|
'-'EX' an exerciser
i'm an ex 'E'  an exerciser

dont drink, dont sink, i change my own bed sheets
i read i write
i cant stay up at night and i want to know
if im going down with anything
and Ive got a hero that ill follow to the end

i'm an ex 'EX' an exerciser
i'm an ex 'EX' an exerciser
i'm an ex 'EX' an exerciser
i'm an ex 'EX' an exerciser

Bridge: Full Distortion

e------------------------------------------|
B------------------------------------------|
G------------------------------------------|
D---------5-5-5-2--2-2-2-2-5-5-5-5-7-7-7-7-|
A-2-2-2-5-3-3-3-0--0-0-0-0-3-3-3-3-5-5-5-5-|
E-0-0-0-3----------------------------------|
  
  1+  2+  3+  4+
e-----------------|
b-----------------|
g-----7------- 5-x|
d-5---7-x--7---5-x| x2 (only play muted chords second time)
a-5---5-x--7---3-x|
e-3-----x--5------|

dont smoke, hate dope
dont laugh at dirty jokes
got a mum and a dad, only ones ive ever had-'

Full Distortion
e-------------------------|
b-------------------------|
g-------77777-------555555|
d-55555-77777-77777-555555| x7
a-55555-55555-77777-333333|
e-33333-------55555-------|

-and i want to know, if im growing old from anything
and Ive got a hero that ill follow to the end

i'm an ex 'EX' an exerciser
i'm an ex 'EX' an exerciser
i'm an ex 'EX' an exerciser
i'm an ex 'EX' an exerciser
Tap to rate this tab
 
# A B C D E F G H I J K L M N O P Q R S T U V W X Y Z