Song name
# A B C D E F G H I J K L M N O P Q R S T U V W X Y Z

Rhubarb - Nice Girls tab

Nice Girls
R H U B A R B
Tabbed By Aaron Bridgeman (rokken@sicness.net)

http://bogans.arecool.net

Pretty simple song. Here we go.

Listen to song for best timing.

INTRO
e|---------------------------|
B|---------------------------|
G|---------------------------|
D|-------7-7---8-8---5-5-5-5-|
A|-5-5-x-5-5-x-6-6-x-3-3-3-3-|
E|-3-3-x-----x-----x---------|

VERSE
e|---------------------|
B|---------------------|
G|---------------------|
D|------7----8----5----|
A|-5----5----6----3----|
E|-3-------------------|

CHORUS
e|---------------------------|
B|---------------------------|
G|---------------------------|
D|-------7-7---8-8---5-5-5-5-|
A|-5-5-x-5-5-x-6-6-x-3-3-3-3-|
E|-3-3-x-----x-----x---------|

BRIDGE RIFF 1
e|--------6-----------------------------4--------|
B|----------5--- repeat - then - this ----3------|
G|------------6-----------------------------4----|
D|-----------------------------------------------|
A|-7-7-7-----------------------------------------|
E|-5-5-5-----------------------------------------|
Repeat those arpeggios!

BRIDGE RIFF 2
e|--------------------------|
B|--------------------------|
G|--------------------------|
D|-----5-/-7-7--------------|
A|-7-7-3-/-5-5-7-5--5-5-5-6-|
E|-5-5---------5-3--3-3-3-4-|

BRIDGE RIFF 3 (clean)
e|-5---0---2---3-|
B|-5---1---3---0-|
G|-6---0---2---0-|
D|-7---2---0---0-|
A|-7---3---5---x-|
E|-5-----------3-|

LYRICS!!!
Nice girls are
out there with
quick wit and
long hair
I'm here but
she's there
I look but
she stares

Send me one

Nice boys are
in bands they
can sing but
can't dance
I try to
impress but
she laughs at
my dress

Send me one

This song will soon end
time's up to pretend
What will be my fate if I
can't land this date?

Send me one
Tap to rate this tab
# A B C D E F G H I J K L M N O P Q R S T U V W X Y Z