Song name
# A B C D E F G H I J K L M N O P Q R S T U V W X Y Z

Rhubarb - Exerciser tab

-------------------------------------------------------------------------------
			     EXERCISER - Rhubarb
-------------------------------------------------------------------------------
Tabbed by: me,metallic blue! lol
Email:jess_is_cool.online@hotmail.com

Tuning:ebgdae
This is my First Ever tab! (As u can probrably tell) but hey? This song Rocks and 
no tab for it so i thought i'd give it a go- enjoy!
e|---------------------------------------------------------------------------|
B|---------------------------------------------------------------------------|
G|-------------7-7-7--5-5-5-5------------------------------------------------|
D|----5-5-5-5--7-7-7--5-5-5-5--7-7-7-----------------------------------------|
A|----5-5-5-5--5-5-5--3-3-3-3--7-7-7-----------------------------------------|
E|----3-3-3-3------------------5-5-5-----------------------------------------|
 Actually this is a really easy song, u just play this through the WHOLE song,Ha Ha 
me to pick such an easy song to tab out- oh well- PLEASE email me on any tips or comments! 
then Bai!
Tap to rate this tab
# A B C D E F G H I J K L M N O P Q R S T U V W X Y Z