Song name
# A B C D E F G H I J K L M N O P Q R S T U V W X Y Z

Rhythmic Noise - Shreaker tab

#----------------------------------PLEASE NOTE--------------------------------#
#This file is the author's own work and represents their interpretation of the#
#song. You may only use this file for private study, scholarship, or research.#
#-----------------------------------------------------------------------------#
#-- File created with Instab - http://www.pconline.com/~smcarey/instab.html --#
#-----------------------------------------------------------------------------#

Author/Artist: rhytmic noise
Title: shreaker
Transcribed by: dave
Email: bigbooties_45@hotmail.com

this is just a piece from my band my cousin plays drums currently we are looking for another guitar player

--------323222---------323222-----323222-----323222---------------------------|
-----0--------------3----------3----------3----------3br0---------------------|
------------------------------------------------------------------------------|
------------------------------------------------------------------------------|
------------------------------------------------------------------------------|
--0---------------------------------------------------------------------------|
                after the intro go to CHORUS

-----------|----------|---------|---------|-----------------------------------|
-----------|----------|---------|---------|-----------------------------------|
-9---------|----------|---7-----|---------|-----------------------------------|
-9---------|-----9----|---7-----|----7----|-----------------------------------|
-7---------|-----9----|---5-----|----7----|-----------------------------------|
-7---------|-----7----|---5-----|----5----|-----------------------------------|
 6x              5x       6x         5x      repeat that  a few times then

------------------------------------------------------------------------------|
------------------------------------------------------------------------------|
-7777777777---999999999-----12-12-12-12-12-12-12-12-12------------------------|
------------------------------------------------------------------------------|
------------------------------------------------------------------------------|
------------------------------------------------------------------------------|
 be tapping with your middle finger 1 fret down, after this palm mute chorus

------------------------------------------------------------------------------|
------------------------------------------------------------------------------|
------------------------------------------7-----------------------------------|
-9-9-9-9-------7-7-7-7------3-3-3-3-------7-7---\-10--------------------------|
-9-9-9-9-------7-7-7-7------3-3-3-3-------5-7---\-10--------------------------|
-7-7-7-7-------5-5-5-5------1-1-1-1-------5-5---\-8---------------------------|
 then this   USE DOWN STROKES ONLY             HOPE YOU ENJOY
Tap to rate this tab
# A B C D E F G H I J K L M N O P Q R S T U V W X Y Z