Song name
# A B C D E F G H I J K L M N O P Q R S T U V W X Y Z

Riblja Corba - Ne Znam Duso tab

E|-4----6-7-----6--------6-7-----6---------6-7-----6---------6-7----6---|R
B|-----------------5----------------7-----------------4-----------------|E
G|----------------------------------------------------------------------|P X2
D|----------------------------------------------------------------------|E
A|----------------------------------------------------------------------|A
e|----------------------------------------------------------------------|T

E|-4-6-7-4-6-7-4-6-7-4-6-7-4-6-7-6----6-7---6-7---6-7---6-7---6-7-6-|-
B|----------------------------------5-----5-----5-----5-----5-------| \
G|------------------------------------------------------------------|  |
D|------------------------------------------------------------------|  |
A|------------------------------------------------------------------|  | R
e|------------------------------------------------------------------|  | E
                                                                       |-P
E|----6-7---6-7---6-7---6-7---6-7-6---6-7---6-7---6-7---6-7---6-7-6-|  | E X2
B|--7-----7-----7-----7-----7-------4-----4-----4-----4-----4-------|  | A
G|------------------------------------------------------------------|  | T
D|------------------------------------------------------------------|  |
A|------------------------------------------------------------------| /
e|------------------------------------------------------------------|-
Tap to rate this tab
# A B C D E F G H I J K L M N O P Q R S T U V W X Y Z