Song name
# A B C D E F G H I J K L M N O P Q R S T U V W X Y Z

Riblja Corba - Volim Volim Zene tab

Riff 1 >>>                Riff 2 >>>
|-----------------------| |----------------------------|
|-----------------------| |----------------------------|
|-----------------------| |----------------------------|
|-----------------------| |----5--------5----5---------|
|-0--3-0----------------| |----------------------------|
|---------3-3-2-3-2-3-4-| |-3----3---3-----3---3-3-4-5-|
 
 Riff 1
 Obicno izaberem visoku stenu
 s koje se pruza odlican pogled
 Kad na vidiku ugledam zenu
 obema rukama scepam dvogled.
 Riff 2
 I gledam ono sto dusa trazi
 gole drugarice na nudistickoj plazi.
 Prazno
 Neki sto teraju mak na konac,
 kazu mi da sam rasomonac!

Riff 3 >>>
|------------------------------------|
|------------------------------------|
|------------------------------------|
|-5--5--5--5--4--4-------------------|
|-3--3--3--3--2--2--0-----0----3--0--|
|----------------------3-------------|

 Riff3
 Volim volim volim volim zene,
 ali one malo manje vole mene.
 A5
 Zaljubim se pet-sest puta
 C5
 u roku od tri minuta.
 Riff 3
 Volim, volim, volim, volim zene.

 Kada ja dobru zensku vidim
 ja se u opste ne postidim.
 Pridem i kazem: 'Bicu kratak.
 Zenska imas strahovit batak.'
 Priznajem da bih mesao malter
 za jedan obican zenski brushalter.
 Ja bih se odrek'o rodene brace
 za jedne cipkane zenske gace!

 Kupujem strucnu literaturu
 za malu nocnu fiskulturu.
 Reporter, Lui, Playboy, Star
 uzmem kvalitet odbacim skart.
 Pa k'o tapete lepim po zidu
 tek da ih imam sve u vidu.
 Guzate, sisate, lomne u struku
 zbog njih razvijam desnicu ruku.

Tap to rate this tab
 
# A B C D E F G H I J K L M N O P Q R S T U V W X Y Z