Song name
# A B C D E F G H I J K L M N O P Q R S T U V W X Y Z

Riblja Corba - Ja Sam Se Lozio Na Tebe tab

Svira se uz pesmu:

Uvod:
E-------------------|-------------------|
H-------------------|-------------------|
G-------------------|-0------0----------|
D-0------0----------|---3-3-3--3-3-3----| 2X
A--3-3-3--3-3-3-----|-----1-1----1-1----|
E----1-1----1-1-----|-------------------|

Strofa:3x            A ja sam te voleo i vise od toga
E-------------------|---------------------------------|
H-------------------|---------------------------------|
G-------------------|---------------------------------|
D-0-------0---3-3---|-0-0-0-0-0-0-0-0-0-0-0-0-0-0-0-0-|2x
A---3-3-3---3-1-1---|-3-3-3-3-3-3-3-3-3-3-3-3-3-3-3-3-|
E-----1-1-----------|---------------------------------|

ref:

E-------------------|-------------------|
H-------------------|-------------------|
G-------------------|-0------0----------|
D-0------0----------|---3-3-3--3-3-3----| 3X
A--3-3-3--3-3-3-----|-----1-1----1-1----|
E----1-1----1-1-----|-------------------|

   A ti si bila mrtva hladna          ti si bila mrtva
E------------------------------------|--------------|
H------------------------------------|--------------|
G------------------------------------|-------3------|
D-3-3-3-3-3-3-3-3-3-3-3-3-3-3-3-3----|-------1------|
A-3-3-3-3-3-3-3-3-3-3-3-3-3-3-3-3----|--------------|
E------------------------------------|--------------|

Ti si bila hladna...
E-------------------|-------------------|
H-------------------|-------------------|
G-------------------|-0------0----------|
D-0------0----------|---3-3-3--3-3-3----| 2X
A--3-3-3--3-3-3-----|-----1-1----1-1----|
E----1-1----1-1-----|-------------------|

Text:
strofa:

Bila si najlepsa zenska u kraju,
ali previse ozbiljna i previse stroga
jedna od onih koje nikome ne daju,
a ja sam te voleo i vise od toga.

Bila si neko u sasvim pogresnom filmu,
koji se strasno davno prikazivao,
i neces prestati da se foliras
a ja sam se nadao i ocekivao.

ref:
Ja sam se lozio na tebe
o jako sam se
Ja sam se lozio na tebe
o jako sam se
Ja sam se lozio na tebe

A ti si bila mrtva hladna,
a ti si bila mrtva,ti si bila hladna,
o,tako hladna
o,tako mrtva
o,mrtva hladna.
Tap to rate this tab
# A B C D E F G H I J K L M N O P Q R S T U V W X Y Z