Song name
# A B C D E F G H I J K L M N O P Q R S T U V W X Y Z

Riblja Corba - Rapsodija U Plavom tab

------------------------------------------------------------|
----8-10-8----10~-8---12-12~-------8-10-8----12~-10-8-------|
7-9---------9-------9----------7-9---------9----------9-7~--|
------------------------------------------------------------|
------------------------------------------------------------|
------------------------------------------------------------|

----------------------------12-12~-10-----------------------------|
----8-10-8----10~-8---12~-------------8~-10-12-10--12-12-10-7-8~--|
7-9---------9-------9---------------------------------------------|
------------------------------------------------------------------|
------------------------------------------------------------------|
------------------------------------------------------------------|

G
Bice zanimacije
nove demonstracije,
evo mi se spremamo,
D
opet da ih lemamo.

G
Svakome po utoka
da ih lakse ukoka,
stizu iz provincije
D
odredi policije.

C
Nisam se presvukao
D
samo da bih tukao.
C
Bice puno publike
D
na Trgu republike.

   G       C   D
Mi najvise volimo
     G    C   D
kada ih opkolimo.
      G    C   D
Mi najvise patimo
     C        D          G
kada ih, kada ih ne mlatimo.

------------------------------------------------------------|
----8-10-8----10~-8---12-12~-------8-10-8----12~-10-8-------|
7-9---------9-------9----------7-9---------9----------9-7~--|
------------------------------------------------------------|
------------------------------------------------------------|
------------------------------------------------------------|

----------------------------12-12~-10-----------------------------|
----8-10-8----10~-8---12~-------------8~-10-12-10--12-12-10-7-8~--|
7-9---------9-------9---------------------------------------------|
------------------------------------------------------------------|
------------------------------------------------------------------|
------------------------------------------------------------------|

G
Mi gazimo do daske
mi spremamo gas-maske
da ih malo guzimo,
D
oci da im suzimo.

G
Da pobunu gusimo,
da cuvamo Skupstinu,
igramo sa decom zmurke,
D
bice opet lude zurke.

C
Kad'pobuna propadne
D
brojim dame dosadne.
C
Nije stanje opsadno
D
i meni je dosadno.

      G     C   D
Svima u toj gomili
      G     C   D
kicmu smo polomili
       G    C   D
svakom koji pokusa
      C         D           G
gazdu da, gazdu da ne proslus
Tap to rate this tab
# A B C D E F G H I J K L M N O P Q R S T U V W X Y Z