Song name
# A B C D E F G H I J K L M N O P Q R S T U V W X Y Z

Riblja Corba - Rock N Roll Za Kucni Savet tab

e------------------------------------------------------------------|
B------------------------------------------------------------------|
G------4-4--------------------------------------------4-4----------|
D--------------4-------5-5-------------7-7--------------------4----|
A--2-2-----2-2------------------5--------------7--2-2-----2-2------|
E------------------3-3------3-3----5-5-----5-5---------------------|

e------------------------------------------------------------------|
B------------------------------------------------------------------|
G------4-4--------------------------------------------4-4----------|
D--------------4-------5-5-------------7-7-------------------------|
A--2-2-----2-2------------------5--------------7--2-2--------------|
E------------------3-3------3-3----5-5-----5-5---------------------|

e------------------|--------------------------|
B------------------|--------------------------|
Gó---2h4p2---4-----|---------2----------------|
D----------4-------|--2h3h4----4-----4--------|
A------------------|-------------4h2----------|
E------------------|--------------------------|

e--------------------------|\
B--------------------------| \
G---------2----------------|  Riff     
D--2h3h4----4-----4--------|  /
A-------------4h2----------| /
E--------------------------|/


F#m
Kada slusam dobre stvari
A 
meni se u ritmu skace
|G|          |F#m|
za komsije ko jos mari
|G|         riff  F#m  riff
ja radio pustam jace


Kucni savet me proganja
svi me mrze iz dna duse 
kazu, dosta im je dranja
i zidovi da se ruse


Hm
Komsije ce da me biju
G 
zbog preglasnog rokenrola
A                   |A|A|
pominju mi familiju 
A         Hm        |A|G|F#|1.
teraju me dodjavola                  x2

A ja pustam sve jos jace
i naravno i oni cuju
i odvrcu mi osigurace
i iskljucuju mi struju

F#m
Al' imaju jos problema
A
kako sa mnom da se bore
|G|         |F#|
protiv mene leka nema
|A|         |F#| 
ja imam tranzistore

Ref.  x2
Tap to rate this tab
 
# A B C D E F G H I J K L M N O P Q R S T U V W X Y Z