Song name
# A B C D E F G H I J K L M N O P Q R S T U V W X Y Z

Riblja Corba - Ostani Djubre Do Kraja tab

Riblja Corba-Ostani djubre do kraja
=============================================

  Am                 Am                Am                Am
|------------------|-----------------|-----------------|-----------------|
|----------0h1-----|---------0h1-----|---------0h1-----|---------0h1-----|
|--------2-----2---|-------2-----2---|-------2-----2---|-------2---------|
|------2---------2-|-----2---------2-|-----2---------2-|-----2-----------|
|--0---------------|-0---------------|-0---------------|-0-----------0-2-|
|------------------|-----------------|-----------------|-----------------|
                                                                      Dok

   C                 G                 Am                Am
|----------0-------|-------3---------|-----------------|-----------------|
|--------------1---|-----------------|---------0h1-----|---------0h1-----|
|--------0-------0-|-----------0---0-|-------2-----2---|-------2---------|
|------2-----------|-----0-----------|-----2---------2-|-----2-----------|
|--3---------------|---------3---2---|-0---------------|-0-----------0-2-|
|------------------|-3---------------|-----------------|-----------------|
   stojim za sankom  delimicno         pijan


   C                 G                 Am                Am
|----------0-------|-------3---------|-----------------|-----------------|
|--------------1---|-----------------|---------0h1-----|---------0h1-----|
|--------0-------0-|-----------0---0-|-------2-----2---|-------2-----2---|
|------2-----------|-----0-----------|-----2---------2-|-----2---------2-|
|--3---------------|---------3---2---|-0---------------|-0---------------|
|------------------|-3---------------|-----------------|-----------------|
   Mrzeci pomalo           i sebe  i   druge


   Am                Am                Hm                Hm
|------------------|-----------------|-----------------|-----------------|
|----------0h1-----|---------0h1-----|---------3h4-----|---------3h4-----|
|--------2-----2---|-------2-----2---|-------4-----4---|-------4-----4---|
|------2---------2-|-----2---------2-|-----4---------4-|-----4---------4-|
|--0---------------|-0---------------|-2---------------|-2---------------|
|------------------|-----------------|-----------------|-----------------|
   Ubijam lagano         konjak, ciga--rete


   C                 G                 Am                Am
|----------0-------|-------3---------|-----------------|-----------------|
|--------------1---|-----------------|---------0h1-----|---------0h1-----|
|--------0-------0-|-----------0---0-|-------2-----2---|-------2---------|
|------2-----------|-----0-----------|-----2---------2-|-----2-----------|
|--3---------------|---------3---2---|-0---------------|-0-----------0-2-|
|------------------|-3---------------|-----------------|-----------------|
   Prijatelje dobre,     moje verne    sluge.


C        G         Am
Nisam od onih koji cvile
C            G         Am
Vise te nemam i sta tu mogu
Am                    Hm
Ja cu se posle odvuci kuci
C              G            Am
Samo da popijem jos jednu s nogu.


D           C    G      Am
Nisi valjda luda da se stidis
D                  C    G     Am
Sto si me prognala istocno od raja
G                      Am
Bar se nasmesi kada me vidis
G5              Am
Ostani dubre do kraja.


Znam, necu moci jos dugo da zaspim
Beskrajno duge, proklete noci
Kako su pogresni dani bez tebe
Tu mi ni pice ne moze pomoci.

Nisi valjda luda da se stidis
Sto si me prognala istocno od raja
Bar se nasmesi kada me vidis
Ostani dubre do kraja.

Tabed by 
Pozdrav za <`CrAZy`>-a
Knjazevac rules
Serbija4Life
Tap to rate this tab
# A B C D E F G H I J K L M N O P Q R S T U V W X Y Z