Guitaretab - guitar tabs
Song name
# A B C D E F G H I J K L M N O P Q R S T U V W X Y Z

Riblja Corba - Vetar Duva Duva Duva tab

-------------------------------------------------------------------------------
                     Vetar duva, duva, duva  Riblja corba
-------------------------------------------------------------------------------


Album: Mrtva priroda
Tabbed by: brian_s
Email: branimir.sremec@kc.t-com.hr

Tuning: E A D G B e


Verse:
e-------------------------------0---------------------0---------------|
B---------0-----------------------1---------------------1-------------|
G-------0---0------0-2-4------0----------0-2-4------0----------0-2-4--|
D-----0----------0----------2----------0----------2----------0--------|
A-------------------------3---------------------3---------------------|
E---3----------3---------------------3---------------------3----------|
[ Tab from: http://www.guitaretab.com/r/riblja-corba/70553.html ]
End of verse:
----------------------|
-------3--------0-----|
-----2---2--------0---|
---0----------0-------|
----------------------|
------------3---------|

Chorus:                                    Oh yeah part
e---------0------------------------------I-------------|
B-----------1--------0------3------0-----I-------0-----|
G-------0----------0------2----------0---I---------0---|
D-----2----------0------0--------0-------I-----0-------|
A---3------------------------------------I-------------|
E--------------3---------------3---------I---3---------|


Sada je vreme putovanja
Nikada duzi put do kuce
Iako nemam temperaturu
Cas mi je hladno, a cas mi je vruce

A vetar duva, duva, duva
I usta su nam sasvim suha oh yeah

Hteo bi sadrzaj zbunjene glave
Sa necim jacim da zamenim
Mozda je kamen dovoljno dobar
Hteo bi da se okamenim

A vetar duva, duva, duva
I usta su nam sasvim suha oh yeah

Enjoy
Related for Vetar Duva Duva Duva tab