Song name
# A B C D E F G H I J K L M N O P Q R S T U V W X Y Z

Ricardo Arjona - Historia De Un Taxi tab

----------------------------------------------------------------------
Atista: Ricaro Arjona
Cancion: Historia de un Taxi
Album: Historias (1994)
----------------------------------------------------------------------
Es una excelente cancion espero q la disfruten. El tiempo es un poco dificil pero al con 
se llega a dominar.

Intro:

|-----------1--0---------------------1-1/3-----------------|
|--------3-------1--------3-------3--------1-------3-------|
|-----2------------2----2-------2------------2---2---------|
|--0------------------0-------0-----------------0----------|
|----------------------------------------------------------|
|----------------------------------------------------------|

Esa parte se toca dos veces. De ahi sigue esto:

|--1-0-----------1-0--------1-0-------------1-0-------------|
|-------1-0-1--------1-0-1-------1-0-1/3--------1-0-1/3-----|
|-----------------------------------------------------------|
|-----------------------------------------------------------|
|-----------------------------------------------------------|
|-----------------------------------------------------------|

|--1-0-----------1-0-------1-0-------------|
|-------1-0-1--------1-0-1------1-0-1/3----|
|------------------------------------------|
|------------------------------------------|
|------------------------------------------|
|------------------------------------------|
Tap to rate this tab
# A B C D E F G H I J K L M N O P Q R S T U V W X Y Z