Song name
# A B C D E F G H I J K L M N O P Q R S T U V W X Y Z

Ricardo Arjona - Mentiroso tab

“Mentiroso” by Enrique Iglesias

--13-15-16-------13-15-16---15-15-13-13-11-11-6-8-------------------------|
--------------------------------------------------------------------------|
--------------------------------------------------------------------------|
--------------------------------------------------------------------------|
--------------------------------------------------------------------------|
--------------------------------------------------------------------------|

--------------------------------------------------------------------------|
--6-8-9-------6-8-9---8-8-6-6/8-4-4---------------------------------------|
------------------------------------3-5------5-3----8/1------1-0----------|
------------------------------------------------------------------1-3-----|
--------------------------------------------------------------------------|
--------------------------------------------------------------------------|

---------------4-----3-4-3------------------------------------------------|
-----4-4----2-------------------------------------------------------------|
--1-----------------------------------------------------------------------|
--------------------------------------------------------------------------|
--------------------------------------------------------------------------|
--------------------------------------------------------------------------|
Tap to rate this tab
 
# A B C D E F G H I J K L M N O P Q R S T U V W X Y Z