Song name
# A B C D E F G H I J K L M N O P Q R S T U V W X Y Z

Ricardo Arjona - Mojado tab

Bueno, un idolo guatemalteco y una gran cancion x cierto... pues aca esta el
intro... suena bastante bien... pero ustedes diran jejeje...


-----8--10s11--11-----10h11p10--8-10-11-13-------10---|
--8--------------------------------------------11-----|
------------------------------------------------------|
------------------------------------------------------|
------------------------------------------------------|
------------------------------------------------------|


-8----8-10-11------8---------10------8---7-------------|
---11------------9-----------------------x-------------|
-------------------------10------8-------7-------------|
-------------------------------------------------------|
-------------------------------------------------------|
-------------------------------------------------------|


------7-8-7------8-7------8-7------8-7-------8-7-----7--|
----8-------8--------8--------8--------8---------8------|
--7-----------7--------7--------7--------7---------7----|
--------------------------------------------------------|
--------------------------------------------------------|
--------------------------------------------------------|


------------------------------------------------------|
------------------------------------------------------|
------------------------------------------------------|
------------------------------------------------------|
--------2h3-------------------------------------------|
---4p2------------------------------------------------|

Cualquier correccion se las agradezco y cualquier cosa a mi mail: melinton_navas@hotmail.com
Tap to rate this tab
 
# A B C D E F G H I J K L M N O P Q R S T U V W X Y Z