Song name
# A B C D E F G H I J K L M N O P Q R S T U V W X Y Z

Ricardo Arjona - Por Que Es Tan Cruel El Amor tab

Help us improve GuitareTab! Take a short survey!
ntro


E----------------------------------------------|
A----------------------------------------------|
D----------------------------------------------|
G----------------------------------------------|
B----------------------------------------------|
e--7-9-10-10s12-12-10-10-9-9-7-7s9-------------|


E----------------------------------------------|
A----------------------------------------------|
D----------------------------------------------|
G----------------------------------------------|
B----------------------------------------------|
e--7-9-10-10s12-12-10-10-9-9-7-7-5-------------|


a mediados de la canción


E----------------------------------------------|
A----------------------------------------------|
D----------------------------------------------|
G----------------------------------------------|
B----------------------------------------------|
e--4-5-7-7-9-10-10s12-12-10-10-9-9s10-7-7s9----|


E----------------------------------------------|
A----------------------------------------------|
D----------------------------------------------|
G----------------------------------------------|
B----------------------------------------------|
e--7-9-10-10s12-12-10-10-9-9-7-7-5-------------|


la parte final


E----------------------------------------------|
A----------------------------------------------|
D----------------------------------------------|
G----------------------------------------------|
B----------------------------------------------|
e--5-7-9-10-10s12-12-10-10-9-9-7-7s9-----------|


E----------------------------------------------|
A----------------------------------------------|
D----------------------------------------------|
G----------------------------------------------|
B----------------------------------------------|
e--7-9-10-10s12-12-10-10-9-9-7-7-5-------------|


E----------------------------------------------|
A----------------------------------------------|
D----------------------------------------------|
G----------------------------------------------|
B--2-3-5---------------------------------------|
e--------4-5-7-7-9-10s12-12s14-12-12-10-10-9---|


E----------------------------------------------|
A----------------------------------------------|
D----------------------------------------------|
G----------------------------------------------|
B----------------------------------------------|
e--7-7s9-9-9-9---------------------------------|


E----------------------------------------------|
A----------------------------------------------|
D----------------------------------------------|
G----------------------------------------------|
B----------------------------------------------|
e--7-9-10-10s12-12-10-10-9-9-7-7-5-------------|


E----------------------------------------------|
A----------------------------------------------|
D----------------------------------------------|
G----------------------------------------------|
B--2-3-5-2-3-5---------------------------------|
e--------------4-5-7-4-5-7-7-9-10--------------|


E----------------------------------------------|
A----------------------------------------------|
D----------------------------------------------|
G----------------------------------------------|
B----------------------------------------------|
e--7-9-10-10s12-12s14-12-10-9-9-7-7-5----------|
Related for Por Que Es Tan Cruel El Amor tab