Song name
# A B C D E F G H I J K L M N O P Q R S T U V W X Y Z

Ricardo Arjona - Desnuda tab

Intro

| Gtr I
|
|---------------|---------------|---------------|---------------|---------------|---------------|---------------|
|-------3-----3-|-------3-------|-------3-----3-|-------3-------|-------3-------|-------3-------|-------3-------|
|-----0---0-----|---0-----0---0-|---0-----0-----|---0-----0---0-|---0-----0---0-|---2-----2---0-|---0-----0---0-|
|---0-------0---|-----2-----2---|-----0-----0---|-----2-----2---|-----0-----0---|-----0-----0---|-----2-----0---|
|---------------|-3-------------|---------------|-3-------------|---------------|---------------|---------------|
|-3-------------|---------------|-3-------------|---------------|-3-------------|-2-------------|-0-------------|
|
|
| Gtr II
|
|-----------------------------------------------|----------/3---|-3-------------|/3-2-2-2-------|---------------|
|-----------------------------------------------|----------/3---|-3-0-0-0-1-3---|/5-3-3-3-5-3---|/5-3-0---------|
|-----------------------------------------------|---------------|---0-0-0-2-4---|---------5-4---|/5-4-0---------|
|-----------------------------------------------|---------------|---------------|---------------|---------------|
|-----------------------------------------------|---------------|---------------|---------------|---------------|
|-----------------------------------------------|---------------|---------------|---------------|---------------|


| Gtr I

|---------------|---------------|---------------|---------------|---------------|---------------|
|-------3-------|-------3-------|-------3-------|-------3-------|-------------3-|-(3)-----------|
|---0-----0---0-|---0-----0---0-|---2-----2---0-|---0-----0-----|-------------0-|-(0)-----------|
|-----2-----2---|-----0-----0---|-----0-----0---|-----2-----0---|-2-----0-----2-|-(2)-----------|
|-3-------------|---------------|---------------|---------------|-3-----2-----0-|-(0)-----------|
|---------------|-3-------------|-2-------------|-0-------------|---------------|---------------|
|
|
| Gtr II
|----------/3---|-3-------------|/3-2-2-2-------|---------------|
|----------/3---|-3-0-0-0-1-3---|/5-3-3-3-5-3---|/5-3-0---------|
|---------------|---0-0-0-2-4---|---------5-4---|/5-4-0---------|
|---------------|---------------|---------------|---------------|
|---------------|---------------|---------------|---------------|
|---------------|---------------|---------------|---------------|

| Gtr I
|     No es ninguna aberración sexual               Pero me gusta verte andar en cueros. 
compás de tus pechos
|---------------|---------------|---------------|---------------|---------------|---------------|---------------|
|-------3-------|-------3-------|-------3-------|-------3-------|-------3-------|-------3-------|-------3-------|
|---0-----0---0-|---2-----2---0-|---0-----0---0-|---0-----0---0-|---0-----0---0-|---0-----0---0-|---2-----2---0-|
|-----0-----0---|-----0-----0---|-----2-----0---|-----2-----2---|-----0-----0---|-----0-----0---|-----0-----0---|
|---------------|---------------|---------------|-3-------------|---------------|---------------|---------------|
|-3-------------|-2-------------|-0-------------|---------------|-3-------------|-3-------------|-2-------------|
|
|
| Gtr II
|
|-------------------------------------------------------------------------------|---------------|-7---7---------|
|-------------------------------------------------------------------------------|---------------|---------------|
|-------------------------------------------------------------------------------|-------------7-|---------------|
|-------------------------------------------------------------------------------|---------------|---------------|
|-------------------------------------------------------------------------------|---------------|---------------|
|-------------------------------------------------------------------------------|---------------|---------------|

| Gtr I
| aventureros. Víctimas de la gravedad                                  Será porque no 
gusta la tapicería
|---------------|---------------|-------|---------------|-------2-0-------|---------------|---------------|
|-------3-------|-------3-------|-------|-------3-------|-----3-----3-----|-------3-------|-------0---0---|
|---0-----0---0-|---0-----0---0-|-0---0-|---0-----0---0-|---2-----------2-|---0-----0---0-|---0---------2-|
|-----2-----0---|-----2-----2---|---2---|-----0-----0---|-0-----------0---|-----2-----2---|-----0---------|
|---------------|-3-------------|-------|---------------|-----------------|-3-------------|---------2-----|
|-0-------------|---------------|-------|-3-------------|-----------------|---------------|-3-------------|
|
| Gtr II
|
|---------------|---------------|-------|---------------|-----------------|---------------|---7-----7-----|
|----/5-0-\3----|---------------|-------|---------------|-----------------|---------------|---------------|
|--------0----4-|---------------|-------|---------------|-----------------|---------------|/7------/8-----|
|---------------|---------------|-------|---------------|-----------------|---------------|---------------|
|---------------|---------------|-------|---------------|-----------------|---------------|---------------|
|---------------|---------------|-------|---------------|-----------------|---------------|---------------|

| Gtr I
|	          que creo que tu desnudez es tu mejor lencería.
|---------------|---------------|---------------|--------------|--------|
|-------0-------|-------3-------|---3------3----|------3-----3-|------3-|
|---0-----0---0-|---0-----0---0-|-----0------2--|--0-----0-----|-0------|
|-----2-----0---|-----2-----2---|--------0------|----2-----2---|---2----|
|---------------|-3-------------|---------------|3-------------|--------|
|-0-------------|---------------|-3-------------|--------------|--------|
|
|
| Gtr II
|
|-0-------------|---------------|-----7-5-------|---------------|-------|
|---------------|---------------|---------------|-------------3-|-5-3---|
|---------------|---------------|--/7-----------|---------------|-------|
|---------------|---------------|---------------|---------------|-------|
|---------------|---------------|---------------|---------------|-------|
|---------------|---------------|---------------|---------------|-------|


| Gtr I
|   Por eso es que me gustas tal y como eres	    incluso ese par de libras de más.  Si 
viese tu jefe desnuda
|---------------|---------------|---------------|---------------|---------------|---------------|---------------|
|-------3-------|-------3-------|-------3-------|-------3-------|-------3-------|-------3-------|-------3-------|
|---0-----0---0-|---2-----2---0-|---0-----0---0-|---0-----0---0-|---0-----0---0-|---0-----0---0-|---2-----2---0-|
|-----0-----0---|-----0-----0---|-----2-----0---|-----2-----2---|-----0-----0---|-----0-----0---|-----0-----0---|
|---------------|---------------|---------------|-3-------------|---------------|---------------|---------------|
|-3-------------|-2-------------|-0-------------|---------------|-3-------------|-3-------------|-2-------------|
|
|
| Gtr II
|
|---------------|---------------|-----10-10-----|---------------|---------------|---------------|-------10\-----|
|---8---8-------|---10--10------|---/12---10\-8-|---8---8-------|---8---8-------|---8---8-------|---------------|
|---------------|---------------|---------------|---------------|---------------|---------------|---------------|
|---------------|---------------|---------------|---------------|---------------|---------------|---------------|
|---------------|---------------|---------------|---------------|---------------|---------------|---------------|
|---------------|---------------|---------------|---------------|---------------|---------------|---------------|


| Gtr I
|y detrás		 no dudaría en promover tu cintura.		  Deja llenarme de tu desnudez
|---------------|---------------|--------------|-------2-0-------|---------------|---------------|
|-------0-------|-------3-------|------3-------|-----3-----3-----|-------3-------|-------0---0---|
|---0-----0---0-|---0-----0---0-|--0-----0---0-|---2-----------2-|---0-----0---0-|---0---------2-|
|-----2-----0---|-----2-----2---|----0-----0---|-0-----------0---|-----2-----2---|-----0---------|
|---------------|-3-------------|--------------|-----------------|-3-------------|---------2-----|
|-0-------------|---------------|-3------------|-----------------|---------------|-3-------------|
|
|
|
| Gtr II
|
|--2/3----------|---------------|--------------|-----------------|---------------|-----------10-|
|--3/5---5-3----|---8---8-------|---8---8---10-|---/12-12\10-8-8-|---------------|-----------10-|
|------------4--|---------------|--------\12---|-----------------|---------------|-------9/11---|
|---------------|---------------|--------------|-----------------|---------------|--------------|
|---------------|---------------|--------------|-----------------|---------------|--------------|
|---------------|---------------|--------------|-----------------|---------------|--------------|

| Gtr I
|		para afrontar los disfraces de afuera de una mejor manera.
|---------------|---------------|---------------|-2-------------|-0-------------|-(0)--|
|-------0-------|-------3-------|-------3-------|-1-------------|-1-------------|-(1)--|
|---0-----0---0-|---0-----0---0-|---0-----0---0-|-2-------------|-0-------------|-(0)--|
|-----2-----0---|-----2-----2---|-----0-----0---|-0-------------|-2-------------|-(2)--|
|---------------|-3-------------|---------------|---------------|-3-------------|-(3)--|
|-0-------------|---------------|-3-------------|---------------|-0-------------|-(0)--|
|
|
| Gtr II
|
|-12------------|----12\10-8----|-----7---------|---------------|---------5-5-5-|-5\3-3-0-0-3---|
|-12------------|---------------|---------------|---------------|---------5-5-5-|-5\3-3-0-0-3---|
|-12------------|--12-----------|--/7-----------|---------------|---------0-0-0-|-0---0-0-0-0---|
|---------------|---------------|---------------|---------------|---------------|---------------|
|---------------|---------------|---------------|---------------|---------------|---------------|
|---------------|---------------|---------------|---------------|---------------|---------------|


      G			D		     C			G	   D
Desnuda que no habrá diseño que te quede mejor que el de tu piel ajustada a tu figura.

      G			   D			C		G	   D
Desnuda que no hay un ingenuo que vista a una flor sería como taparle la hermosura.

     E m		        B m	   C			G	     B7		           E m
Desnuda que la naturaleza no se equivoca y si se hubiese querido con ropa con ropa hubieses nacido,

C		G	   B7		        E m
Deja llenarme de tu desnudez para vestirme por dentro

C
aunque sea un momento.						Uuuuujuuu...
| Gtr I
|
||----------------|---------------|---------------|----------------||
||º-------3-----3-|-------3-------|-------3-----3-|-------3-------º||
||------0---0-----|---0-----0---0-|---0-----0-----|---0-----0---0--||
||----0-------0---|-----2-----2---|-----0-----0---|-----2-----2----||
||º---------------|-3-------------|---------------|-3-------------º||
||--3-------------|---------------|-3-------------|----------------||


| Gtr I
      Y ahora que por fin te tengo así		   Desnuda y precisamente en frente. Desnuda 
un poquito la
|---------------|---------------|---------------|---------------|---------------|---------------|---------------|
|-------3-------|-------3-------|-------3-------|-------3-------|-------3-------|-------3-------|-------3-------|
|---0-----0---0-|---2-----2---0-|---0-----0---0-|---0-----0---0-|---0-----0---0-|---0-----0---0-|---2-----2---0-|
|-----0-----0---|-----0-----0---|-----2-----0---|-----2-----2---|-----0-----0---|-----0-----0---|-----0-----0---|
|---------------|---------------|---------------|-3-------------|---------------|---------------|---------------|
|-3-------------|-2-------------|-0-------------|---------------|-3-------------|-3-------------|-2-------------|


| Gtr I
|mente,		pon tus complejos junto de tu ropa,		   y si te sientes un poquito loca ponte loca
|---------------|---------------|---------------|-------2-0-------|---------------|---------------|---------------|
|-------3-------|-------3-------|-------3-------|-----3-----3-----|-------3-------|-------0-------|-------0-------|
|---0-----0---0-|---0-----0---0-|---0-----0---0-|---2-----------2-|---0-----0---0-|---0-----0---0-|---2-----2---2-|
|-----2-----0---|-----2-----2---|-----0-----0---|-0-----------0---|-----2-----2---|-----0-----0---|-----1-----1---|
|---------------|-3-------------|---------------|-----------------|-3-------------|---------------|-2-------------|
|-0-------------|---------------|-3-------------|-----------------|---------------|-3-------------|---------------|


| Gtr I
|completa		que verte será sólo el inicio ante de perder el juicio.
|---------------|---------------|--------------|-2-------------|-0-------------|-(0)-----------|
|-------0-------|-------3-------|------3-------|-3-------------|-1-------------|-(1)-----------|
|---0-----0---0-|---0-----0---0-|--0-----0---0-|-2-------------|-0-------------|-(0)-----------|
|-----2-----0---|-----2-----2---|----0-----0---|-0-------------|-2-------------|-(2)-----------|
|---------------|-3-------------|--------------|---------------|-3-------------|-(3)-----------|
|-0-------------|---------------|-3------------|---------------|-0-------------|-(0)-----------|

      G			D		     C			G	   D
Desnuda que no habrá diseño que te quede mejor que el de tu piel ajustada a tu figura.

      G			   D			C		G	   D
Desnuda que no hay un ingenuo que vista a una flor sería como taparle la hermosura.

     E m		        B m	   C			G	     B7		           E m
Desnuda que la naturaleza no se equivoca y si se hubiese querido con ropa con ropa hubieses nacido,

C		G	   B7		        E m
Deja llenarme de tu desnudez para vestirme por dentro

C
aunque sea un momento.					Aunque sea un  momento
| Gtr I

||-------3-------|-------3-------|-------3-------|-------3--------||
||-------3-------|-------3-------|-------3-------|-------3-------º||
||-----0---0---0-|---2-----2---0-|---0-----0---0-|---2-----2---0--||
||---0-------0---|-----0-----0---|-----2-----0---|-----0-----0---º||
||---------------|---------------|---------------|----------------||
||-3-------------|-2-------------|-0-------------|-2--------------||

| Gtr I
|
|---------------|---------------|---------------|---------------|
|-------3-------|-------3-------|-------3-------|-------3-------|
|---0-----0---0-|---2-----2---0-|---0-----0---0-|---0-----0---0-|
|-----0-----0---|-----0-----0---|-----2-----0---|-----2-----2---|
|---------------|---------------|---------------|-3-------------|
|-3-------------|-2-------------|-0-------------|---------------|

| Gtr I
+E    S S  S  S S S +E    S S
|---------------|---------------|---------------|-----0-----0-----0-|--3------------|-----3----------*|
|-------3-------|-------3-------|-------3-------|---3-----3-----3---|--3------------|-------3---------|
|---0-----0---0-|---2-----2---0-|---0-----0-----|-0-----0-----0-----|--0------------|---------0-------|
|-----0-----0---|-----0-----0---|-----2-----0---|-2-----0-----2-----|--0------------|-0---------0-----|
|---------------|---------------|---------------|-3-----2-----0-----|--2------------|-------------2---|
|-3-------------|-2-------------|-0-------------|-------------------|--3------------|---3-----------3-|
Tap to rate this tab
# A B C D E F G H I J K L M N O P Q R S T U V W X Y Z