Song name
# A B C D E F G H I J K L M N O P Q R S T U V W X Y Z

Rich Hardesty - Never Wanna Fucking See You Again tab

----------------------------------------------------------------------------
			     SONG NAME - Band Name
----------------------------------------------------------------------------
Tabbed by: Paul Raskin
Email: praskin@depauw.edu

Tuning: Standard

e|----3-3-----3-3-----3-3-5-5-5s7---7-7s10-10--
B|3h5-----3h5-----3h5--------------------------
G|---------------------------------------------
D|---------------------------------------------
A|---------------------------------------------
E|---------------------------------------------

e|10-10s12-12-12-10-7-5-3-5-3------------------
B|---------------------------------------------
G|---------------------------------------------
D|---------------------------------------------
A|---------------------------------------------
E|---------------------------------------------

e|---------------------------------------------
B|---------------------------------------------
G|---------------------------------------------
D|0h2-5-5-7-5-7s9-12-12-----0h2-5-5-7-5-7-5-2-2
A|---------------------------------------------
E|---------------------------------------------

e|----3-3---5-3-5-7-7-5-3----------------------
B|3h5------------------------------------------
G|---------------------------------------------
D|---------------------------------------------
A|---------------------------------------------
E|---------------------------------------------

| s  slide
| h  hammer-on
| p  pull-off
| ~  vibrato
| +  harmonic
| x  Mute note
============================================================================
Tap to rate this tab
 
# A B C D E F G H I J K L M N O P Q R S T U V W X Y Z