Song name
# A B C D E F G H I J K L M N O P Q R S T U V W X Y Z

Rich Kids On Lsd - Dont Take Us tab

Rick Kids On LSD (RKL) - Don't Take Us (demos)

TABBED BY ALBERTO mollysvictim@yahoo.it

INTRO (PART 1)
  A   C   G   (let ring every chord)
e---------------|
B---------------|
G---------------|
D---7---2---5---|
A---7---3---5---|
E---5-------3---|

INTRO (PART 2)
e--------------------------------------------------------|
B--------------------------------------------------------|
G--------------------------------------------------------|
D---7-7---------10-10---------7-7---------10-9----7------|
A---7-7-----7----8--8-----7---7-7-----7----8-7-10-5-10-9-|
E---5-5-7-8---8-------7-8---8-5-5-7-8---8-------8----8-7-|

e----------------------------------------------------|
B----------------------------------------------------|
G----------------------------------------------------|
D---7-7---------10-10---------2-2-2-2-0-7-7-7-2-0----|
A---7-7-----7----8--8-----7---3-3-3-3-2-5-5-5-3-2-2--|
E---5-5-7-8---8-------7-8---8----------------------3-|

VERSE

e----------------------------------------------|
B----------------------------------------------|
G-------------5-5--5-5-5-----------------------|
D---7---------3-3--3-3-3--2-2--2-2-2-5-5-5-5-5-|
A---7-----3---------------3-3--3-3-3-5-5-5-5-5-|
E---5-3-5---5------------------------3-3-3-3-3-|

PRE-CHORUS
e------------------------|
B------------------------|
G---12----10----------12-|
D---12----10----10----12-|
A---10-----8----10----10-|
E----------------8-------|

CHORUS (same as Intro part 2)
e--------------------------------------------------------|
B--------------------------------------------------------|
G--------------------------------------------------------|
D---7-7---------10-10---------7-7---------10-9----7------|
A---7-7-----7----8--8-----7---7-7-----7----8-7-10-5-10-9-|
E---5-5-7-8---8-------7-8---8-5-5-7-8---8-------8----8-7-|

e----------------------------------------------------|
B----------------------------------------------------|
G----------------------------------------------------|
D---7-7---------10-10---------2-2-2-2-0-7-7-7-2-0----|
A---7-7-----7----8--8-----7---3-3-3-3-2-5-5-5-3-2-2--|
E---5-5-7-8---8-------7-8---8----------------------3-|


RIFF
e-------------------------------------------|
B-------------------------------------------|
G----------5-----------------------7--------|
D---7-5-7---7---7-5-7-5-7---7-5-7---7---7-5-|
A-------------------------------------------|
E-------------------------------------------|


OUTRO
e-----------------------------------------------------|
B-----------------------------------------------------|
G-----------------------------------------------------|
D---3-3-3-3-3-3-3-3---5-5-5-5-5-5-5-5---7-7-------7-7-|
A---3-3-3-3-3-3-3-3---5-5-5-5-5-5-5-5---7-7-------7-7-|
E---1-1-1-1-1-1-1-1---3-3-3-3-3-3-3-3---5-5-------5-5-|


check out the video version @ youtu.be/Zeri5wfXiUc
Tap to rate this tab
 
# A B C D E F G H I J K L M N O P Q R S T U V W X Y Z